The Soul Of Man Never Dies (Acoustic Live)

by Billy Strings

99

Capo: 4th fret

[Intro]
 
e |------------------------|------------------------|------------------------|
B |--------1--1---1--------|1-----1----3------------|------1-----------------|
G |----0--0--2--0-0-2-0----|0-----0----0------------|-0-2-0------------------|
D |-2-3--2--3-----2----0h2-|2-0h2-2-0--0----0-0-1-2-|------------------------|
A |----------------3-------|---------2---0-2-3------|------------------------|
E |------------------------|------------3-----------|------------------------|
 
[Verse]
C                      Fmaj7 C
To Caanan's land, i'm on my way
C                    G7
Where the soul never dies
C                       Fmaj7  C
My darkest night will turn to day
C           G7       C
Where the soul never dies
 
[Chorus]
C                           Fmaj7   C
Dear friends there'll be no sad farewells
C                          G7
There'll be no dear dimmed eyes
C                        Fmaj7   C
Where all is peace and joy and love
C                 G7        C
And the soul of a man never dies
 
[Break]
 
e |------------------------|------------------------|------------------------|-------------------------|
B |----------1----------1--|-------1--1--1--------1-|-----1----3-------------|-----1-------------------|
G |----------0----------0--|---0--0--2-0-0-2-0----0-|-----0----0-------------|0-2p0--------------------|
D |------0h2-2-2-3-2-0--2--|2-3--2--3----2----0h2-2-|-0h2-2-0--0----0--0-1-2-|-------------------------|
A |--0-2--------------3----|--------------3---------|--------2---0-2-3-------|-------------------------|
E |-3----------------------|------------------------|-----------3------------|-------------------------|
 
[Verse]
C                    Fmaj7  C
I'm on my way to that fair land
C                    G7
Where the soul never dies
C                Fmaj7   C
There will be no parting hand
C                   G7        C
Where the soul of a man never dies
 
[Chorus]
C                           Fmaj7   C
Dear friends there'll be no sad farewells
C                          G7
There'll be no dear dimmed eyes
C                        Fmaj7   C
Where all is peace and joy and love
C                 G7        C
And the soul of a man never dies
 
[Break]
 
e |------------------------|------------------------|------------------------|-------------------------|
B |----------1----------1--|-------1--1--1--------1-|-----1----3-------------|-----1-------------------|
G |----------0----------0--|---0--0--2-0-0-2-0----0-|-----0----0-------------|0-2p0--------------------|
D |------0h2-2-2-3-2-0--2--|2-3--2--3----2----0h2-2-|-0h2-2-0--0----0--0-1-2-|-------------------------|
A |--0-2--------------3----|--------------3---------|--------2---0-2-3-------|-------------------------|
E |-3----------------------|------------------------|-----------3------------|-------------------------|
 
[Verse]
C                        Fmaj7 C
The rose is blooming there for me
C                    G7
Where the soul never dies
C                Fmaj7  C
And I will spend eternity
C           G7       C
Where the soul never dies
 
[Chorus]
C                           Fmaj7   C
Dear friends there'll be no sad farewells
C                          G7
There'll be no dear dimmed eyes
C                        Fmaj7   C
Where all is peace and joy and love
C                 G7        C
And the soul of a man never dies
 
[Break]
 
e |------------------------|------------------------|------------------------|-------------------------|
B |----------1----------1--|-------1--1--1--------1-|-----1----3-------------|-----1-------------------|
G |----------0----------0--|---0--0--2-0-0-2-0----0-|-----0----0-------------|0-2p0--------------------|
D |------0h2-2-2-3-2-0--2--|2-3--2--3----2----0h2-2-|-0h2-2-0--0----0--0-1-2-|-------------------------|
A |--0-2--------------3----|--------------3---------|--------2---0-2-3-------|-------------------------|
E |-3----------------------|------------------------|-----------3------------|-------------------------|
 
[Verse]
C                      Fmaj7 C
To Caanan's land, i'm on my way
C                    G7
Where the soul never dies
C                Fmaj7   C
There will be no parting hand
C           G7       C
Where the soul never dies
 
[Chorus]
C                           Fmaj7   C
Dear friends there'll be no sad farewells
C                          G7
There'll be no dear dimmed eyes
C                        Fmaj7   C
Where all is peace and joy and love
C                 G7        C
And the soul of a man never dies
 
[Chorus]
C                           Fmaj7   C
Dear friends there'll be no sad farewells
C                          G7
There'll be no dear dimmed eyes
C                        Fmaj7   C
Where all is peace and joy and love
C                 G7        C
And the soul of a man never dies
C           G7       C
Where the soul never dies
Visit www.musixindo.com
to see the lyrics The Soul Of Man Never Dies (Acoustic Live)
                  To Canaan’s land I’m on my way
Where the soul (of man) never dies
My darkest night will turn to day
Where the soul (of man) never dies

(lead)
No sad farewells
No tear dimmed eyes
Where all is love
And the soul never dies

(tenor)
Dear friends there’ll be no sad farewells
There’ll be no tear-dimmed eyes
Where all is peace and joy and love
And the soul of man never dies

The rose is blooming there for me
Where the soul (of man) never dies
And I will spend eternity
Where the soul (of man) never dies

The love light beams across the foam
Where the soul (of man) never dies
It shines and lights the way to home
Where the soul (of man) never dies

My life will end in deathless sleep
Where the soul (of man) never dies
And everlasting joys I’ll reap
Where the soul (of man) never dies

I’m on my way to that fair land
Where the soul (of man) never dies
Where there will be no parting hand
Where the soul (of man) never dies                
Tab not available
 Buy song The Soul Of Man Never Dies (Acoustic Live) on iTunes store

Support artists with purchashing the original song!

share Share
TikTok top songs playlist 2022



0 Comments
Please sign-in to comment.

All Artists: # A B C D E F G H I J K L M N O P Q R S T U V W X Y Z