Red Daisy (Live)

by Billy Strings

112

Capo: 4th fret

[Intro]
 
G D G
 
[Chorus]
G
Daisy, red daisy, growin' on a hill
                    D          G
Sunshine fallin' on her petals so fine
 
[Verse 1]
G                                             Em
At first when I found you, all covered in the dew
G                            D       G
The stars had all faded, the day was brand new
 
[Chorus]
G
Daisy, red daisy, growin' on a hill
                    D          G
Sunshine fallin' on her petals so fine
 
[Break 1]
 
e|-------3----------------|---------------3---3---3|---------0-2-3-0----0---|-------------------------|
B|-------3----2/3-3-2/3-3-|----0-----------3-3-5-5-|3-3-5-3-3--------3p0-3-0|2p1-1--------------------|
G|-----0-0--0-3/4-4-3/4-4-|0---0---0-0-2/4--4---4--|-4------4---------------|---3-3/4-0---0-----------|
D|--0-2--0-0--------------|-2-0-0-2-2--------------|------------------------|----------3p0-3-0---0-2p0|
A|-2-----2----------------|------------------------|------------------------|-----------------1/2-----|
E|-------3----------------|------------------------|------------------------|-------------------------|
 
e|------------------------|------------------------|------3--3-----1-3-3-3-3|3-3-3-3-3-3-3-3-3-3-3-3-3|
B|------------------------|------------------------|-------3--3-3-3---------|-------------------------|
G|-0-----0-----0-------0--|3/4-3/4-3\2-0---0---0---|-0-2/4--4--4--4---------|-------------------------|
D|--0-3/5-0-3/5-0-0-0h2---|---0---0-----2p0-0-2-0-0|2-----------------------|-------------------------|
A|------------------------|----------------------2-|------------------------|-------------------------|
E|------------------------|------------------------|------------------------|-------------------------|
 
e|-3-3-1-1----------------|------------------------|
B|--------3-1------1/3-2p1|--1---------------------|
G|-----------3/4-0----0---|-3-3/4-0-----0---------0|
D|------------------------|--------0-2p0-2-0---0-2-|
A|------------------------|-----------------1/2----|
E|------------------------|------------------------|
 
 
[Verse 2]
G                                                    Em
When the skies are gloomy, and you're covered in the frost
G                           D       G
Oh daisy, red daisy, I fear my soul is lost
 
[Chorus]
G
Daisy, red daisy, growin' on a hill
                    D          G
Sunshine fallin' on her petals so fine
 
[Break 2]
 
G D G
 
[Verse 3]
G                                          Em
Queen of the springtime, my body's gettin' old
G                                        D        G
Winter wind might bite me, but I'll keep you from the cold
 
[Chorus]
G
Daisy, red daisy, growin' on a hill
                    D          G
Sunshine fallin' on her petals so fine
 
[Break 3]
 
G D G
 
[Outro]
G                                               Em
One day a passing traveler plucked you from the ground
G                      D        G
Oh how I miss you, and your crimson crown
Visit www.musixindo.com
to see the lyrics Red Daisy (Live)
                  Daisy red daisy growin' on a hill
Sunshine fallin' on her petals so fine

At first when I found you all covered in the dew
The stars had all faded the day was brand new

Daisy red daisy growin' on a hill
Sunshine fallin' on her petals so fine

When the skies are gloomy
And you're covered in the frost
Daisy red daisy I fear my soul is lost

Daisy red daisy growin' on a hill
Sunshine fallin' on her petals so fine

Queen of the springtime
My body's getting old
Winter winds might bind me but
I'll keep you from the cold

Daisy red daisy growin' on a hill
Sunshine fallin' on her petals so fine

One day a passing traveler plucked
You from the ground
Oh how I'll miss you and your crimson crown                
Tab not available
 Buy song Red Daisy (Live) on iTunes store

Support artists with purchashing the original song!

share Share
TikTok top songs playlist 2022



0 Comments
Please sign-in to comment.

All Artists: # A B C D E F G H I J K L M N O P Q R S T U V W X Y Z