Cinta Ini Membunuhku

by D'Masiv

Chord Gitar Cinta Ini Membunuhku by D'Masiv - Musikord.com

195

[intro] 
C Am F 

    C 
kau membuat kuberantakan 
    Am 
kau membuat ku tak karuan 
    Dm 
kau membuat ku tak berdaya 
      G 
kau menolakku acuhkan diriku 

  C 
bagaimana caranya untuk 
  Am 
meruntuhkan kerasnya hatimu 
  Dm 
kusadari ku tak sempurna 
       G 
ku tak seperti yang kau inginkan 

[reff] 
       C                    Cmaj7 
kau hancurkan aku dengan sikapmu 
      Em           A         Dm 
tak sadarkah kau telah menyakitiku 
Em    F            Em    Am 
lelah hati ini meyakinkanmu 
   Dm        G 
cinta ini membunuhku 

[interlude] 
F G E/G# Am Em Dm Em F G 

[ending] A# Am C
Kunjungi www.musixindo.com
untuk melihat lirik Cinta Ini Membunuhku
                  Kau membuat, ku berantakan.
Kau membuat, ku tak karuan.
Kau membuat, ku tak berdaya.
Kau menolak ku, acuhkan diri ku.

[#:]
Bagaimana, caranya untuk,
Meruntuhkan, kerasnya hati mu.
Ku sadari, ku tak sempurna,
Ku tak seperti, yang kau inginkan.

[Reff:]
Kau hancurkan aku dengan sikap mu,
Tak sadarkah kau telah menyakiti ku.
Lelah hati ini meyakinkan mu,
Cinta ini, membunuh ku.

[#] ~~ [Reff]

[Interlude]

[Reff]

Woo... Hu~u... Haa...
Lelah hati ini meyakinkan mu,
Cinta ini, membunuh ku.                
                  E ------------------------------------------------------------ 
B ------------------------------------------------------------ 
G ------------------------------------------------------------ 
D -------10---------10-12/14-14-12-10-12---------------------- 
A -10^12------10^12------------------------------------------- 
E ------------------------------------------------------------ 

E --------------------------------17----17---------------------- 
B ----------------13~-15-13-15b17----17----17r15-13-13^15^13---- 
G ----------12^14--------------------------------------------14- 
D -10-12/14----------------------------------------------------- 
A -------------------------------------------------------------- 
E -------------------------------------------------------------- 

E -----------------------------20----------20b22-20b22r20------- 
B -15/17-20-20b22--20b22-20b22----20b22-17---------------------- 
G -------------------------------------------------------------- 
D -------------------------------------------------------------- 
A -------------------------------------------------------------- 
E -------------------------------------------------------------- 

E -20-19/20\19-------------------------------------------------- 
B -------------20-20^22-20~~~~---------------------------------- 
G -------------------------------------------------------------- 
D -------------------------------------------------------------- 
A -------------------------------------------------------------- 
E --------------------------------------------------------------                
 Beli lagu Cinta Ini Membunuhku di iTunes store

Support artist dengan membeli lagu asli


share Bagikan



0 Komentar
Masuk untuk berkomentar.



Semua Artist: 0-9 A B C D E F G H I J K L M N O P Q R S T U V W X Y Z