Merindukanmu

by D'Masiv

Chord Gitar Merindukanmu by D'Masiv - Musikord.com

223

[intro] 
C Cmaj7 F 

C            Cmaj7   F 
saat aku tertawa di atas semua 
C           Cmaj7      F 
saat aku menangisi kesedihanku 

 Am   G            F 
aku ingin engkau selalu ada 
 Am   G           F    G 
aku ingin engkau aku kenang 

    F                 Em 
selama aku masih bisa bernafas 
              Dm      G 
masih sanggup berjalan 
            C 
kan slalu memujamu 
               F 
meski ku tak tau lagi 
           Em   A 
engkau ada di mana 
      Dm     G     
dengarkan aku ku merindukanmu 

C  

C            Cmaj7   F 
saat aku mencoba merubah sgalanya 
C           Cmaj7     F 
saat aku meratapi kekalahanku 

[interlude] 
Am G F G 

Am Dm 
      F      G             C 
dengarkan aku ku merindukanmu
Kunjungi www.musixindo.com
untuk melihat lirik Merindukanmu
                  [Intro]

Saat aku tertawa di atas semua
Saat aku menangisi kesedihanku

Aku ingin engkau selalu ada
Aku ingin engkau aku kenang

Selama aku masih bisa bernafas
Masih sanggup berjalan
Ku kan slalu memujamu
Meski ku tak tau lagi
Engkau ada di mana
Dengarkan aku ku merindukanmu

Saat aku mencoba merubah sgalanya
Saat aku meratapi kesalahanku

[Interlude]

Dengarkan aku ku merindukanmu                
                  CHORD JUDIKA LEBIH DARI CINTA

 
E -------------------------13--------------------------------- 
B -------13----13-15-15b17----15~--13-13/15-12----12-13-13b15- 
G -10/12----12---------------------------------12------------- 
D ------------------------------------------------------------ 
A ------------------------------------------------------------ 
E ------------------------------------------------------------ 


E -----------15----------------------------------------------- 
B -13-13/15-----15/17----13-12-13-13^15^13-12----------------- 
G ------------------------------------------------------------ 
D ------------------------------------------------------------ 
A ------------------------------------------------------------ 
E ------------------------------------------------------------                 
 Beli lagu Merindukanmu di iTunes store

Support artist dengan membeli lagu asli


share Bagikan



0 Komentar
Masuk untuk berkomentar.



Semua Artist: 0-9 A B C D E F G H I J K L M N O P Q R S T U V W X Y Z