Walmart Yodeling Kid (TAB)

by Mason Ramsey

571

Chord not Available

Chord not Available

Be the first to submit Walmart Yodeling Kid (TAB). Get more points to every chord you submit

add Submit chords
Lyrics not available
                  Walmart Yodeling Kid tab by Mason Ramsey
1,435 views, added to favorites 14 times
The song the Walmart Yodeling Kid sings, Lovesick Blues. Was this info helpful?YesNo
Tuning: E A D G B E
Author its1lauren9eh [a] 31. Last edit by its1lauren9eh [a] 31 on May 13, 2018.
DOWNLOAD
e|---------------------------3-----------------------------------------------|
B|------0-----0-----0-----0-----3------------3--------0----------------------|
G|---3-----3-----3-----3-----------------------------------------0-----------|
D|-------------------------------------------------------------------0-------|
A|---------------------------------------------------------------------------|
E|---------------------------------------------------------------------------|
    
e|-------------------2----2----2--------------------------------5----2-------|
B|-------------------1----1----1----------1--0--1--0--1--2---3----3----------|
G|-------------------2----2----2----------------------------------------2----|
D|-2-0-2-3--4--------0----0----0---------------------------------------------|
A|---------------------------------------------------------------------------|
E|---------------------------------------------------------------------------|

e|------------------------3-------------------------------------3------------|
B|-0-----0--3--0------0------3----------0----------------0-------------------|
G|----3-----------3---------------------------0-----0------------------------|
D|---------------------------------------------------------------------------|
A|---------------------------------------------------------------------------|
E|---------------------------------------------------------------------------|
         
e|-0----------0--------------------------0--0--------------------------------|
B|-1-------3--------------------------------------3----3--3-2-1--0-----------|
G|-0----------------0-------3------------------------------------1-----------|
D|---------------------------------------------------------------------------|
A|---------------------------------------------------------------------------|
E|---------------------------------------------------------------------------|

e|-------0----------0---------------------------------0----0-----0-----------|
B|----0----------0---------0--0--0------0----------3----3-----3------3-------|
G|-3----------3---------3-----------2-------2--------------------------------|
D|---------------------------------------------------------------------------|
A|---------------------------------------------------------------------------|
E|---------------------------------------------------------------------------|

e|-0-----------3------------3------------------------------------------------|
B|---3-0---0--------3----------3---------0-----------------------------------|
G|---------0-------------------------------------0-------0-------------------|
D|---------------------------------------------------4--------4--2-----------|
A|---------------------------------------------------------------------------|
E|---------------------------------------------------------------------------|

e|-----------2-----2------2----------------------------------5---------------|
B|-----------1-----1------1---------0--1--0--1--1--1------3-----3------------|
G|--0--------2-----2------2-------------------------------------------2------|
D|---------------------------------------------------------------------------|
A|---------------------------------------------------------------------------|
E|---------------------------------------------------------------------------|

e|----------------------0--------2-----2-----2-------------------------------|
B|-------------------------------0-----0-----0-------0----1---3--------------|
G|-1--2--1--2------3-------------2-----2-----2-------------------------------|
D|---------------------------------------------------------------------------|
A|---------------------------------------------------------------------------|
E|---------------------------------------------------------------------------|

e|-0-------------0--------------------------------------------0------0-------|
B|-1--------3----------------------------------------------------------------|
G|-0-----------------0------------3------------------------------------------|
D|---------------------------------------------------------------------------|
A|---------------------------------------------------------------------------|
E|---------------------------------------------------------------------------|

e|---------------------------------0----0--------0-----0---------------------|
B|-3-------------3---2---3---4-----0-------------------------0------0--------|
G|-0-------------------------------1-----------------------------------------|
D|---------------------------------------------------------------------------|
A|---------------------------------------------------------------------------|
E|---------------------------------------------------------------------------|

e|----3-----3--------------------------------------0-----------0-------------|
B|-0-----0-----0--------------------3---3----3-----------3-------------------|
G|-----------------2---------------------------------------------------------|
D|---------------------------------------------------------------------------|
A|---------------------------------------------------------------------------|
E|---------------------------------------------------------------------------|

e|---------------------------------------3-----------------------------------|
B|--0------------------------------------0----------------------0--0--0------|
G|-------0-------------------------------0-----------------------------------|
D|---------------------------------------------------------------------------|
A|---------------------------------------------------------------------------|
E|---------------------------------------------------------------------------|

e|---------------------------------------------------------------------------|
B|-0--------0---0---0----0--0------0------0------0---------------------------|
G|-2-------------------------------0----------3------------------------------|
D|-1-------------------------------2-----------------------------------------|
A|---------------------------------------------------------------------------|
E|---------------------------------------------------------------------------|

e|----------------------------------------------------0----------------------|
B|-0--0-----0-----------------------------------------0-----0--0--0----------|
G|-------3----2-----0-------------2-------------------0----------------------|
D|---------------------------------------------------------------------------|
A|---------------------------------------------------------------------------|
E|---------------------------------------------------------------------------|

e|---------------------------------------------------------------------------|
B|-0-------0--0--0-------0---0-------0-----0------0-------------------0------|
G|-2---------------------------------0--------3------------------------------|
D|-1---------------------------------2---------------------------------------|
A|---------------------------------------------------------------------------|
E|---------------------------------------------------------------------------|

e|----------0-------0--------------------------------------------------------|
B|-----------------------0-------------------------------------------0-------|
G|-2---2----------------------------2---------------------------2------------|
D|----------------------------------0----------------------------------------|
A|---------------------------------------------------------------------------|
E|---------------------------------------------------------------------------|

e|---------------------------------------------------------------------------|
B|-1--1--1--1-------------------1--1---1-----0---1---------------------------|
G|-----------------2---------------------------------------------2-----------|
D|---------------------------------------------------------------------------|
A|---------------------------------------------------------------------------|
E|---------------------------------------------------------------------------|

e|---------------------------------------------------------------------------|
B|-0---------0----------------------------------------------0----------------|
G|-0----------------0--------------------------------------------------------|
D|----------------------2-----0----------------------------------------------|
A|---------------------------------------------------------------------------|
E|---------------------------------------------------------------------------|

e|----------------------------------------------3-------3--------------------|
B|-2---2------0-----------------------------2-------2--------0---------------|
G|-0------------------------2------------------------------------2-----------|
D|---------------------------------------------------------------------------|
A|---------------------------------------------------------------------------|
E|---------------------------------------------------------------------------|

e|-------------------------------------------------------------3------3------|
B|-2---2---2-----0---------------------3---------------0----0---------0------|
G|---------------------2-----------------------------3---3------------0------|
D|---------------------------------------------------------------------------|
A|---------------------------------------------------------------------------|
E|---------------------------------------------------------------------------|                
 Buy song Walmart Yodeling Kid (TAB) on iTunes store

Support artists with purchashing the original song!

TikTok top songs playlist 2022



0 Comments
Please sign-in to comment.

All Artists: # A B C D E F G H I J K L M N O P Q R S T U V W X Y Z