Vse Lepo Za Vse

by Hamo & Tribute 2 Love

696

[Intro]
   Am       F                 Dm             Bb       Bb         C
e|------------------|--------------|---------------|-----------|-----------|
B|---1--------------|---1----------|---1-----------|-----------|-----------|
G|-2---2-0----------|-2---2-0------|-2---2-0-------|-----------|-----------|
D|----------3-------|---------3----|---------3-5-3-|-----------|-----------|
A|------------------|--------------|---------------|-----------|-----------|
E|------------------|--------------|---------------|-----------|-----------|
 
 
[Verse 1]
F
Krasno leto se mi zdi
Dm         C           Bb
Čeprav vsi pravijo, da ni.
F
Ker tisti čas je, ko sneži
Dm       C           Bb
Jaz pa s tabo gledam si v oči.
 
[Bridge]
Gm
Vse smeri, enak naslov
Bb                 C
Vse luči mi kažejo domov.
 
[Verse 2]
F
Dolgo leto se mi zdi
Dm    C          Bb
A za oblaki sije sonce.
F
Ker tisti čas je, ko sneži.
Dm    C             Bb
Ti pa greješ na vse konce.
 
[Bridge]
Gm
Vse smeri, enak naslov
Bb                 C
Vse luči mi kažejo domov.
 
[Chorus]
         Bb
Vse lepo vsem
               F
Naj gre v novo leto
            Bb
Vse lepo za vse
               F
Naj gre v novo leto
             Bb
Vse lepo naj gre
               Dm
Naj gre v novo leto
    C                         C7
Naj konča in vse na novo se začne.
 
[Solo]
   Am       F                 Dm             Bb       Bb         C
e|------------------|--------------|---------------|-----------|-----------|
B|---1--------------|---1----------|---1-----------|-----------|-----------|
G|-2---2-0----------|-2---2-0------|-2---2-0-------|-----------|-----------|
D|----------3-------|---------3----|---------3-5-3-|-----------|-----------|
A|------------------|--------------|---------------|-----------|-----------|
E|------------------|--------------|---------------|-----------|-----------|
 
[Verse 3]
F
Lepo leto se mi zdi
Dm      C           Bb
Dal sem pike za vse konce.
F
In lepo leto, ker si ti
Dm        C          Bb
Pripela k nama svoje sonce.
 
[Bridge]
Gm
Vse smeri, enak naslov
Bb                 C
Vse luči mi kažejo domov.
 
[Chorus]
         Bb
Vse lepo vsem
               F
Naj gre v novo leto
            Bb
Vse lepo za vse
               F
Naj gre v novo leto
             Bb
Vse lepo naj gre
               Dm
Naj gre v novo leto
    C              Dm         C
Naj konča se in na novo se začneeeeeee.
 
[Chorus]
         Bb
Vse lepo vsem
               F
Naj gre v novo leto
            Bb
Vse lepo za vse
               F
Naj gre v novo leto
             Bb
Vse lepo naj gre
               Dm
Naj gre v novo leeeetooooo
    C              Dm         C
Naj konča se in na novo se začne.
 
[Outro]
            Bb
Vse lepo za vse.
Visit www.musixindo.com
to see the lyrics Vse Lepo Za Vse
Lyrics not available
Tab not available
 Buy song Vse Lepo Za Vse on iTunes store

Support artists with purchashing the original song!

share Share
TikTok top songs playlist 2022



0 Comments
Please sign-in to comment.

All Artists: # A B C D E F G H I J K L M N O P Q R S T U V W X Y Z