Timberwolves at New Jersey

by Taking Back Sunday

170

[Intro]

  Fmaj7                                   G
e|--------------------------------------|---------------------------------------|
B|--------------------------------------|---------------------------------------|
G|--------------------------------------|---------------------------------------|
D|-2-2----2-2----2-2----2-2----2---2----|-0-0----0-0----0-0----0-0----0---0-----|
A|--------------------------------------|---------------------------------------|
E|--------------------------------------|---------------------------------------|
   Am7                                    E7
e|--------------------------------------|---------------------------------------|
B|--------------------------------------|---------------------------------------|
G|--------------------------------------|---------------------------------------|
D|-2-2----2-2----2-2----2-2----2---2----|-0-0----0-0----0-0----0-0----0---0-----|
A|--------------------------------------|---------------------------------------|
E|--------------------------------------|---------------------------------------|

[Verse 1]
Fmaj7
Get up, get up, come on, come on, let's go
G
There's just a few things I think that you should know
Am7                                         Em/B
Those words at best Were worse than teenage poetry
Fmaj7
Fragment ideas and too many pronouns
G
Stop it, come on You're not making sense now
Am7
You can't make them want you
        Em/B
They're all just laughing


[Chorus]
Am            C
Literate and stylish (Literate and stylish)
             G
Kissable and quiet (Kissable and quiet)
                        Em                 Am
Well that's what girls' Dreams are made of
                           C
And that's all you need to know (And that's all you need to know)
                   G
You have it or you don't
                                         Em
(You have it or you) You have it or you (Don't)

[Verse 2]

Fmaj7          G
You have it or you
                 Am7
You see how much time you're wasting?
                 Em/B
You're coward of separating
Fmaj7
Stop it, come on You know I can't help it
G
I got the mic And you've got the mosh pit
Am7                                      Em/B
What will it take to make you admit that you were wrong?
Fmaj7
Was his demise so carefully constructed?
G
Well let's just say I got what I wanted
Am7                               Em/B
'Cause in the end it's always the same
N.C.
(You're still gone) Let's go

[Chorus]
Am
Literate and stylish (Literate and stylish)
             G
Kissable and quiet (Kissable and quiet)
                        Em
Well that's what girls' dreams are made of
Am                         C
And that's all you need to know (And that's all you need to know)
                   G
You have it or you don't (You have it or you)
                    Em         Am
You have it or you (Don't) You don't

   Am           C              G           F
e|---------------------------|-------------------0------|
B|---1--0--1-------1--0--1---|----1--0--1-----------1---|
G|---------------------------|-0--------------2---------|
D|---------------------------|-------------3------------|
A|-0------------3------------|--------------------------|
E|---------------------------|--------------------------|

   Am           C              G           F
e|---------------------------|-------------------0------|
B|---1--0--1-------1--0--1---|----1--0--1-----------1---|
G|---------------------------|-0--------------2---------|
D|---------------------------|-------------3------------|
A|-0------------3------------|--------------------------|
E|---------------------------|--------------------------|

[Bridge]
Am                  C
This is me with the words
                 G
On the tip of my tongue
                       F
And my eye through the scope
                     Am             C
Down the barrel of a gun (gun, gun)
          G           F             Am
Remind me not to ever act this way again
                   C
This is you trying hard to
                      G
Make sure that you're seen
                    F
With a girl on your arm
                       Am     C
And your heart on your sleeve
          G           F             Am
Remind me not to ever think of you again
                    C
This is me with the words
                 G
On the tip of my tongue
                       F
And my eye through the scope
                     Am  C
Down the barrel of a gun
          G                         Am
Remind me not to ever act this way again


   Am       C           G        F           Am       C           G        F
   Again                                     Again
e|--------------------|--------------------|--------------------|--------------------|
B|----------1---------|--------------------|----------1---------|--------------------|
G|-2------------------|--------------------|-2------------------|--------------------|
D|--------------------|-3--------2---------|--------------------|-3--------2---------|
A|--------------------|--------------------|--------------------|--------------------|
E|--------------------|--------------------|--------------------|--------------------|

Am                  C
This is me with the words
                 G
On the tip of my tongue
                       F
And my eye through the scope
                     Am
Down the barrel of a gun
     C
I'll never
G        F
Act this way
 Am
Again
                                C
Rest the weight You've had your chance and folded
G
Don't hold your breath
               F                Am
Because you'll only make things worse
                                C
Rest the weight You've had your chance and folded
G
Don't hold your breath
               F                Fmaj7
Because you'll only make things worse
        G
This is me
         Am
With the worst
            Em/B
Intentions, don't
         F
Hold your
                                                  G
Hold your breath. Because you'll only make things worse
                                                  Am
Hold your breath. Because you'll only make things worse
                                                  Em/B
Hold your breath. Because you'll only make things worse
N.C.
Don't hold your breath because - You'll only make things worse
Visit www.musixindo.com
to see the lyrics Timberwolves at New Jersey
                  Get up, get up 
Come on, come on, lets go 
There’s just a few things 
I think that you should know 
Those words at best 
were worse than teenage poetry 
Fragment ideas 
and too many pronouns 
Stop it, come on 
You’re not making sense now 
You can't make them want you 
They're all just laughing 

Literate and stylish (literate and stylish) 
Kissable and quiet (kissable and quiet) 
Well that's what girls dreams are made of 
And that's all you need to know (and that’s all you need to know) 
You have it or you don't (you have it or you) 
You have it or you (don't) 

You have it or you 
You see how much time you're wastin? 
You're coward of seperatin 

Stop it, come on 
you know I can’t help it 
I got the mic 
and you got the mosh pit 
What will it take 
to make you admit that you were wrong? 
Was his demise so carefully constructed? 
Well let's just say I got what I wanted 
Cause in the end it’s always the same (you're still gone) 
Lets go 

Literate and stylish (literate and Stylish) 
Kissable and quiet (kissable and quiet) 
Well that's what girls dreams are made of 
And that's all you need to know (and that’s all you need to know) 
You have it or you don't (you have it or you) 
You have it or you (don't) don't 

This is me with the words on the tip of my tongue 
And my eye through the scope 
down the barrel of a gun (gun,gun) 
Remind me not to ever act this way again 
This is you trying hard to 
make sure that you're seen 
With a girl on your arm 
and your heart on your sleeve 
Remind me not to ever think of you again 
This is me with the words 
on the tip of my tongue 
And my eye through the scope 
down the barrel of a gun 
Remind me not to ever act this way again (again) 
again (again) 

This is me with the words 
on the tip of my tongue 
And my eye on the scope 
down the barrel of a gun 
I'll never act this way again 

Rest the weight (I know somethin that you don't know) 
you've had your chance and folded 
Don't hold your breath 
because you'll only make things worse 
Rest the weight (I know somethin that you don't know) 
you've had your chance and folded 
Don't hold your breath 
because you'll only make things worse 

(I know somethin that you don't know) 
This is me with the worst
(I know somethin that you don't know) 
Intentions, don’t 
Hold your, hold your breath 
(I know somethin that you don't know) 
Because you'll only make things worse 
Hold your breath 
Because you'll only make things worse 
Hold your breath 
(I know somethin that you don't know) 
because you'll only make things worse 

Don't hold your breath because you’ll only make things worse!                
Tab not available
 Buy song Timberwolves at New Jersey on iTunes store

Support artists with purchashing the original song!


share Share
Tiktok Top Songs



0 Comments
Please sign-in to comment.

All Artists: # A B C D E F G H I J K L M N O P Q R S T U V W X Y Z