Terbang Tenggelam

by NTRL

344

Intro: 
D 
G  A  Bm 
(2x) 

(*) 
G   A       Bm 
Pesona cintamu 
G     A      Bm 
Menjamah jiwaku 
  G 
Semoga kilau ini 
A                 Bm 
Abadi untuk selamanya 
G    A     Bm 
Gelora selalu 

Reff: 
D          G   Em      A 
Ku mau terbang dan tenggelam 
 F#        G      A 
Menjalani semua ini 
 G     A       Bm  G  A        Bm 
Reguklah nafasku resapi denyutnya 
 G                A                 Bm 
Bawalah diri ini kedalam cinta nan abadi 
 G      A       Bm 
Sambutlah kekasih 

Back to: Reff (2x) 

Interlude: Bm  D  A (2x) 

Back to: (*), 

Reff (3x) 

Coda: 
D
Visit www.musixindo.com
to see the lyrics Terbang Tenggelam
                  Pesona cintamu
Menjamah jiwaku
Semoga kilau ini
Abadi untuk selamanya
Gelora selalu

Ku mau terbang dan tenggelam
Menjalani semua ini

Reguklah nafasku
Resapi denyutnya
Bawalah diri ini
Ke alam cinta nan abadi
Sambutlah kekasih

Ku mau terbang dan tenggelam
Menjalani semua ini
Ku mau terbang dan tenggelam
Menjalani semua ini

Pesona cintamu
Menjamah jiwaku
Semoga kilau ini
Abadi untuk selamanya
Gelora selalu                
                                               S S S S S S S S S S S S S S S S   
E||-------|-------|-------|----------------------------------| 
B||-------|-------|-------|----------3-----3---------3-----3-| 
G||-------|-------|-------|----2-2-----2-2-----2-2-----2-2---| 
D||-------|-------|-------|--0-----0---------0-----0---------| 
A||-------|-------|-------|----------------------------------| 
E||-------|-------|-------|----------------------------------| 


  S S S S S S S S S S S S S S S S    S S S S S S S S S S S S S S S S   
------------------3---2-3---2-----|----------------------------------| 
----------3-----3---------3-----3-|----------3-----3---------3-----3-| 
----2-2-----2-2-----2---------2---|----2-2-----2-2-----2-2-----2-2---| 
--0-----0-------------------------|--0-----0---------0-----0---------| 
----------------------------------|----------------------------------| 
----------------------------------|----------------------------------| 


  S S S S S S S S S S S S S S S S    S S S S S S S S S S S S S S S S   
------------------3---2-3---2-----|----------------------------------| 
----------3-----3---------3-----3-|----------3-----3---------3-----3-| 
----2-2-----2-2-----2---------2---|----2-2-----2-2-----2-2-----2-2---| 
--0-----0-------------------------|--0-----0---------0-----0---------| 
----------------------------------|----------------------------------| 
----------------------------------|----------------------------------| 


  S S S S S S S S S S S S S S S S    S S S S S S S S S S S S S S S S   
------------------3---2-3---2-----|----------------------------------| 
----------3-----3---------3-----3-|----------3-----3---------3-----3-| 
----2-2-----2-2-----2---------2---|----2-2-----2-2-----2-2-----2-2---| 
--0-----0-------------------------|--0-----0---------0-----0---------| 
----------------------------------|----------------------------------| 
----------------------------------|----------------------------------| 


  S S S S S S S S S S S S S S S S    S S S S S S S S S S S S S S S S   
------------------3---2-3---2-----|----------------------------------| 
----------3-----3---------3-----3-|----------3-----3---------3-----3-| 
----2-2-----2-2-----2---------2---|----2-2-----2-2-----2-2-----2-2---| 
--0-----0-------------------------|--0-----0---------0-----0---------| 
----------------------------------|----------------------------------| 
----------------------------------|----------------------------------| 


  S S S S S S S S S S S S S S S S    S S S S S S S S S S S S S S S S   
------------------3---2-3---2-----|----------------------------------| 
----------3-----3---------3-----3-|----------3-----3---------3-----3-| 
----2-2-----2-2-----2---------2---|----2-2-----2-2-----2-2-----2-2---| 
--0-----0-------------------------|--0-----0---------0-----0---------| 
----------------------------------|----------------------------------| 
----------------------------------|----------------------------------| 


  S S S S S S S S S S S S S S S S    S S S S S S S S S S S S S S S S   
--5---2-5-3-2---3-2-----2---------|----------------------------------| 
--------------3-----3-----3-----3-|----------3-----3---------3-----3-| 
----2-----------------2-----2-----|----2-2-----2-2-----2-2-----2-2---| 
------------------------------0---|--0-----0---------0-----0---------| 
----------------------------------|----------------------------------| 
----------------------------------|----------------------------------| 


  S S S S S S S S S S S S S S S S    S S S S S S S S S S S S S S S S   
------------------3---2-3---2-----|----------------------------------| 
----------3-----3---------3-----3-|----------3-----3---------3-----3-| 
----2-2-----2-2-----2---------2---|----2-2-----2-2-----2-2-----2-2---| 
--0-----0-------------------------|--0-----0---------0-----0---------| 
----------------------------------|----------------------------------| 
----------------------------------|----------------------------------| 


  S S S S S S S S S S S S S S S S    S S S S S S S S S S S S S S S S   
------------------3---2-3---2-----|----------------------------------| 
----------3-----3---------3-----3-|----------3-----3---------3-----3-| 
----2-2-----2-2-----2---------2---|----2-2-----2-2-----2-2-----2-2---| 
--0-----0-------------------------|--0-----0---------0-----0---------| 
----------------------------------|----------------------------------| 
----------------------------------|----------------------------------| 


  S S S S S S S S S S S S S S S S    S S S S S S S S S S S S S S S S   
------------------3---2-3---2-----|----------------------------------| 
----------3-----3---------3-----3-|----------3-----3---------3-----3-| 
----2-2-----2-2-----2---------2---|----2-2-----2-2-----2-2-----2-2---| 
--0-----0-------------------------|--0-----0---------0-----0---------| 
----------------------------------|----------------------------------| 
----------------------------------|----------------------------------| 


  S S S S S S S S S S S S S S S S    S S S S S S S S S S S S S S S S   
--5---2-5-3-2---3-2-----2---------|----------------------------------| 
--------------3-----3-----3-----3-|----------3-----3---------3-----3-| 
----2-----------------2-----2-----|----2-2-----2-2-----2-2-----2-2---| 
------------------------------0---|--0-----0---------0-----0---------| 
----------------------------------|----------------------------------| 
----------------------------------|----------------------------------| 


  S S S S S S S S S S S S S S S S    S S S S S S S S S S S S S S S S   
------------------3---2-3---2-----|----------------------------------| 
----------3-----3---------3-----3-|----------3-----3---------3-----3-| 
----2-2-----2-2-----2---------2---|----2-2-----2-2-----2-2-----2-2---| 
--0-----0-------------------------|--0-----0---------0-----0---------| 
----------------------------------|----------------------------------| 
----------------------------------|----------------------------------| 


  S S S S S S S S S S S S S S S S    S S S S S S S S S S S S S S S S   
------------------3---2-3---2-----|----------------------------------| 
----------3-----3---------3-----3-|----------3-----3---------3-----3-| 
----2-2-----2-2-----2---------2---|----2-2-----2-2-----2-2-----2-2---| 
--0-----0-------------------------|--0-----0---------0-----0---------| 
----------------------------------|----------------------------------| 
----------------------------------|----------------------------------| 


  S S S S S S S S S S S S S S S S    S S S S S S S S S S S S S S S S   
------------------3---2-3---2-----|----------------------------------| 
----------3-----3---------3-----3-|----------3-----3---------3-----3-| 
----2-2-----2-2-----2---------2---|----2-2-----2-2-----2-2-----2-2---| 
--0-----0-------------------------|--0-----0---------0-----0---------| 
----------------------------------|----------------------------------| 
----------------------------------|----------------------------------| 


  S S S S S S S S S S S S S S S S   
--5---2-5-3-2---3-2-----2---------| 
--------------3-----3-----3-----3-| 
----2-----------------2-----2-----| 
------------------------------0---| 
----------------------------------| 
----------------------------------| 


   S  S  S  S  S  S  S  S  S  S  S  S  S  S  S  S   
--------------------------------------------------| 
--------------15-------15-------------15-------15-| 
-----14-14-------14-14-------14-14-------14-14----| 
--12-------12-------------12-------12-------------| 
--------------------------------------------------| 
--------------------------------------------------| 


   S  S  S  S  S  S  S  S  S  S  S  S  S  S  S  S   
--------------------------15----14-15----14-------| 
--------------15-------15-------------15-------15-| 
-----14-14-------14-14-------14-------------14----| 
--12-------12-------------------------------------| 
--------------------------------------------------| 
--------------------------------------------------| 


   S  S  S  S  S  S  S  S  S  S  S  S  S  S  S  S   
--------------------------------------------------| 
--------------15-------15-------------15-------15-| 
-----14-14-------14-14-------14-14-------14-14----| 
--12-------12-------------12-------12-------------| 
--------------------------------------------------| 
--------------------------------------------------| 


   S  S  S  S  S  S  S  S  S  S  S  S  S  S  S  S   
--------------------------15----14-15----14-------| 
--------------15-------15-------------15-------15-| 
-----14-14-------14-14-------14-------------14----| 
--12-------12-------------------------------------| 
--------------------------------------------------| 
--------------------------------------------------| 


   S  S  S  S  S  S  S  S  S  S  S  S  S  S  S  S   
--------------------------------------------------| 
--------------15-------15-------------14-------14-| 
-----14-14-------14-14-------14-14-------14-14----| 
--12-------12-------------12-------12-------------| 
--------------------------------------------------| 
--------------------------------------------------| 


   S  S  S  S  S  S  S  S  S  S  S  S  S  S  S  S   
--------------------------15----14-15----14-------| 
--------------12-------12-------------15-------15-| 
-----14-14-------14-14-------14-------------14----| 
--12-------12-------------------------------------| 
--------------------------------------------------| 
--------------------------------------------------| 


   S  S  S  S  S  S  S  S  S  S  S  S  S  S  S  S   
--------------------------------------------------| 
--------------15-------15-------------15-------15-| 
-----14-14-------14-14-------14-14-------14-14----| 
--12-------12-------------12-------12-------------| 
--------------------------------------------------| 
--------------------------------------------------| 


   S  S  S  S  S  S  S  S  S  S  S  S  S  S  S  S   
--17----14-17-15-14----15-14-------14-------------| 
--------------------15-------15-------15-------15-| 
-----14-------------------------14-------14-------| 
--------------------------------------------12----| 
--------------------------------------------------| 
--------------------------------------------------| 


  S S S S S S S S S S S S S S S S    S S S S S S S S S S S S S S S S   
----------------------------------|------------------3---2-3---2-----| 
----------3-----3---------3-----3-|----------3-----3---------3-----3-| 
----2-2-----2-2-----2-2-----2-2---|----2-2-----2-2-----2---------2---| 
--0-----0---------0-----0---------|--0-----0-------------------------| 
----------------------------------|----------------------------------| 
----------------------------------|----------------------------------| 


  S S S S S S S S S S S S S S S S    S S S S S S S S S S S S S S S S   
----------------------------------|------------------3---2-3---2-----| 
----------3-----3---------3-----3-|----------3-----3---------3-----3-| 
----2-2-----2-2-----2-2-----2-2---|----2-2-----2-2-----2---------2---| 
--0-----0---------0-----0---------|--0-----0-------------------------| 
----------------------------------|----------------------------------| 
----------------------------------|----------------------------------| 


  S S S S S S S S S S S S S S S S    S S S S S S S S S S S S S S S S   
----------------------------------|------------------3---2-3---2-----| 
----------3-----3---------3-----3-|----------3-----3---------3-----3-| 
----2-2-----2-2-----2-2-----2-2---|----2-2-----2-2-----2---------2---| 
--0-----0---------0-----0---------|--0-----0-------------------------| 
----------------------------------|----------------------------------| 
----------------------------------|----------------------------------| 


  S S S S S S S S S S S S S S S S    S S S S S S S S S S S S S S S S   
----------------------------------|--5---2-5-3-2---3-2-----2---------| 
----------3-----3---------3-----3-|--------------3-----3-----3-----3-| 
----2-2-----2-2-----2-2-----2-2---|----2-----------------2-----2-----| 
--0-----0---------0-----0---------|------------------------------0---| 
----------------------------------|----------------------------------| 
----------------------------------|----------------------------------| 


  S S S S S S S S S S S S S S S S    S S S S S S S S S S S S S S S S   
----------------------------------|------------------3---2-3---2-----| 
----------3-----3---------3-----3-|----------3-----3---------3-----3-| 
----2-2-----2-2-----2-2-----2-2---|----2-2-----2-2-----2---------2---| 
--0-----0---------0-----0---------|--0-----0-------------------------| 
----------------------------------|----------------------------------| 
----------------------------------|----------------------------------| 


  S S S S S S S S S S S S S S S S    S S S S S S S S S S S S S S S S   
----------------------------------|------------------3---2-3---2-----| 
----------3-----3---------3-----3-|----------3-----3---------3-----3-| 
----2-2-----2-2-----2-2-----2-2---|----2-2-----2-2-----2---------2---| 
--0-----0---------0-----0---------|--0-----0-------------------------| 
----------------------------------|----------------------------------| 
----------------------------------|----------------------------------| 


  S S S S S S S S S S S S S S S S    S S S S S S S S S S S S S S S S   
----------------------------------|------------------3---2-3---2-----| 
----------3-----3---------3-----3-|----------3-----3---------3-----3-| 
----2-2-----2-2-----2-2-----2-2---|----2-2-----2-2-----2---------2---| 
--0-----0---------0-----0---------|--0-----0-------------------------| 
----------------------------------|----------------------------------| 
----------------------------------|----------------------------------| 


  S S S S S S S S S S S S S S S S    S S S S S S S S S S S S S S S S   
----------------------------------|--5---2-5-3-2---3-2-----2---------| 
----------3-----3---------3-----3-|--------------3-----3-----3-----3-| 
----2-2-----2-2-----2-2-----2-2---|----2-----------------2-----2-----| 
--0-----0---------0-----0---------|------------------------------0---| 
----------------------------------|----------------------------------| 
----------------------------------|----------------------------------| 


   S  S  S  S  S  S  S  S  S  S  S  S  S  S  S  S   
--------------------------------------------------| 
--------------15-------15-------------15-------15-| 
-----14-14-------14-14-------14-14-------14-14----| 
--12-------12-------------12-------12-------------| 
--------------------------------------------------| 
--------------------------------------------------| 


   S  S  S  S  S  S  S  S  S  S  S  S  S  S  S  S   
--------------------------15----14-15----14-------| 
--------------15-------15-------------15-------15-| 
-----14-14-------14-14-------14-------------14----| 
--12-------12-------------------------------------| 
--------------------------------------------------| 
--------------------------------------------------| 


   S  S  S  S  S  S  S  S  S  S  S  S  S  S  S  S   
--------------------------------------------------| 
--------------15-------15-------------15-------15-| 
-----14-14-------14-14-------14-14-------14-14----| 
--12-------12-------------12-------12-------------| 
--------------------------------------------------| 
--------------------------------------------------| 


   S  S  S  S  S  S  S  S  S  S  S  S  S  S  S  S   
--------------------------15----14-15----14-------| 
--------------15-------15-------------15-------15-| 
-----14-14-------14-14-------14-------------14----| 
--12-------12-------------------------------------| 
--------------------------------------------------| 
--------------------------------------------------| 


   S  S  S  S  S  S  S  S  S  S  S  S  S  S  S  S   
--------------------------------------------------| 
--------------15-------15-------------14-------14-| 
-----14-14-------14-14-------14-14-------14-14----| 
--12-------12-------------12-------12-------------| 
--------------------------------------------------| 
--------------------------------------------------| 


   S  S  S  S  S  S  S  S  S  S  S  S  S  S  S  S   
--------------------------15----14-15----14-------| 
--------------12-------12-------------15-------15-| 
-----14-14-------14-14-------14-------------14----| 
--12-------12-------------------------------------| 
--------------------------------------------------| 
--------------------------------------------------| 


   S  S  S  S  S  S  S  S  S  S  S  S  S  S  S  S   
--------------------------------------------------| 
--------------15-------15-------------15-------15-| 
-----14-14-------14-14-------14-14-------14-14----| 
--12-------12-------------12-------12-------------| 
--------------------------------------------------| 
--------------------------------------------------| 


   S  S  S  S  S  S  S  S  S  S  S  S  S  S  S  S   
--17----14-17-15-14----15-14-------14-------------| 
--------------------15-------15-------15-------15-| 
-----14-------------------------14-------14-------| 
--------------------------------------------12----| 
--------------------------------------------------| 
--------------------------------------------------| 


   S  S  S  S  S  S  S  S  S  S  S  S  S  S  S  S   
--------------------------------------------------| 
--------------15-------15-------------15-------15-| 
-----14-14-------14-14-------14-14-------14-14----| 
--12-------12-------------12-------12-------------| 
--------------------------------------------------| 
--------------------------------------------------| 


   S  S  S  S  S  S  S  S  S  S  S  S  S  S  S  S   
--------------------------15----14-15----14-------| 
--------------15-------15-------------15-------15-| 
-----14-14-------14-14-------14-------------14----| 
--12-------12-------------------------------------| 
--------------------------------------------------| 
--------------------------------------------------| 


   S  S  S  S  S  S  S  S  S  S  S  S  S  S  S  S   
--------------------------------------------------| 
--------------15-------15-------------15-------15-| 
-----14-14-------14-14-------14-14-------14-14----| 
--12-------12-------------12-------12-------------| 
--------------------------------------------------| 
--------------------------------------------------| 


   S  S  S  S  S  S  S  S  S  S  S  S  S  S  S  S   
--------------------------15----14-15----14-------| 
--------------15-------15-------------15-------15-| 
-----14-14-------14-14-------14-------------14----| 
--12-------12-------------------------------------| 
--------------------------------------------------| 
--------------------------------------------------| 


   S  S  S  S  S  S  S  S  S  S  S  S  S  S  S  S   
--------------------------------------------------| 
--------------15-------15-------------14-------14-| 
-----14-14-------14-14-------14-14-------14-14----| 
--12-------12-------------12-------12-------------| 
--------------------------------------------------| 
--------------------------------------------------| 


   S  S  S  S  S  S  S  S  S  S  S  S  S  S  S  S   
--------------------------15----14-15----14-------| 
--------------12-------12-------------15-------15-| 
-----14-14-------14-14-------14-------------14----| 
--12-------12-------------------------------------| 
--------------------------------------------------| 
--------------------------------------------------| 


   S  S  S  S  S  S  S  S  S  S  S  S  S  S  S  S   
--------------------------------------------------| 
--------------15-------15-------------15-------15-| 
-----14-14-------14-14-------14-14-------14-14----| 
--12-------12-------------12-------12-------------| 
--------------------------------------------------| 
--------------------------------------------------| 


   S  S  E   S  S  E   S  S  E  S  S  E       Q      E   H           E    
-----17-15-----15-14-----14-12----12-10--|------------------------------| 
-----------------------------------------|--/10----/10--10b~---------L--| 
--14--------12--------11--------9--------|------------------------------| 
-----------------------------------------|------------------------------| 
-----------------------------------------|------------------------------| 
-----------------------------------------|------------------------------| 


  E.   E.    E.     Q.       S     Q     E  H           E    
-------------------------------|---------------------------| 
--8b---8b---10b~---10b-------L-|--/8----/8--8b~---------L--| 
-------------------------------|---------------------------| 
-------------------------------|---------------------------| 
-------------------------------|---------------------------| 
-------------------------------|---------------------------| 


  E.   E.   E.    Q.       S     E    E    S  S  E   S  S  E   S  S  E    
-----------------------------|--15b--15b-----17-15-----15-14-----14-12--| 
--5b---6b---6b~---8b-------L-|------------------------------------------| 
-----------------------------|------------14--------12--------11--------| 
-----------------------------|------------------------------------------| 
-----------------------------|------------------------------------------| 
-----------------------------|------------------------------------------| 


  S  S  E  S  S E  S S  E  S  S  E      S  S  E   S  S  E   S  S  E   S  S  E    
----12-10----10-9----9-10----10-12--|-----12-14-----14-14-----14-15-----15-15--| 
------------------------------------|------------------------------------------| 
--9--------7-------7-------9--------|--11--------11--------12--------12--------| 
------------------------------------|------------------------------------------| 
------------------------------------|------------------------------------------| 
------------------------------------|------------------------------------------| 


   S  S  E   S  S  E   S  S  E   S  E.                                        
-----15-17-----17-17-----17-17-----17\---|------|------|------|------|------| 
-----------------------------------------|------|------|------|------|------| 
--14--------14--------14--------14-------|------|------|------|------|------| 
-----------------------------------------|------|------|------|------|------| 
-----------------------------------------|------|------|------|------|------| 
-----------------------------------------|------|------|------|------|------| 


         H        Q    E   E      E   H.            E    
------|-------------------(0)--|--L--------------------| 
------|------------------------|-----(3)------------L--| 
------|------------------------|-----------------------| 
------|------------------------|-----------------------| 
------|------------------------|-----------------------| 
------|------------------------|-----------------------| 


  S S S S S S S S S S S S S S S S    S S S S S S S S S S S S S S S S   
----------------------------------|------------------3---2-3---2-----| 
----------3-----3---------3-----3-|----------3-----3---------3-----3-| 
----2-2-----2-2-----2-2-----2-2---|----2-2-----2-2-----2---------2---| 
--0-----0---------0-----0---------|--0-----0-------------------------| 
----------------------------------|----------------------------------| 
----------------------------------|----------------------------------| 


  S S S S S S S S S S S S S S S S    S S S S S S S S S S S S S S S S   
----------------------------------|------------------3---2-3---2-----| 
----------3-----3---------3-----3-|----------3-----3---------3-----3-| 
----2-2-----2-2-----2-2-----2-2---|----2-2-----2-2-----2---------2---| 
--0-----0---------0-----0---------|--0-----0-------------------------| 
----------------------------------|----------------------------------| 
----------------------------------|----------------------------------| 


  S S S S S S S S S S S S S S S S    S S S S S S S S S S S S S S S S   
----------------------------------|------------------3---2-3---2-----| 
----------3-----3---------3-----3-|----------3-----3---------3-----3-| 
----2-2-----2-2-----2-2-----2-2---|----2-2-----2-2-----2---------2---| 
--0-----0---------0-----0---------|--0-----0-------------------------| 
----------------------------------|----------------------------------| 
----------------------------------|----------------------------------| 


  S S S S S S S S S S S S S S S S    S S S S S S S S S S S S S S S S   
----------------------------------|--5---2-5-3-2---3-2-----2---------| 
----------3-----3---------3-----3-|--------------3-----3-----3-----3-| 
----2-2-----2-2-----2-2-----2-2---|----2-----------------2-----2-----| 
--0-----0---------0-----0---------|------------------------------0---| 
----------------------------------|----------------------------------| 
----------------------------------|----------------------------------| 


   S  S  S  S  S  S  S  S  S  S  S  S  S  S  S  S   
--------------------------------------------------| 
--------------15-------15-------------15-------15-| 
-----14-14-------14-14-------14-14-------14-14----| 
--12-------12-------------12-------12-------------| 
--------------------------------------------------| 
--------------------------------------------------| 


   S  S  S  S  S  S  S  S  S  S  S  S  S  S  S  S   
--------------------------15----14-15----14-------| 
--------------15-------15-------------15-------15-| 
-----14-14-------14-14-------14-------------14----| 
--12-------12-------------------------------------| 
--------------------------------------------------| 
--------------------------------------------------| 


   S  S  S  S  S  S  S  S  S  S  S  S  S  S  S  S   
--------------------------------------------------| 
--------------15-------15-------------15-------15-| 
-----14-14-------14-14-------14-14-------14-14----| 
--12-------12-------------12-------12-------------| 
--------------------------------------------------| 
--------------------------------------------------| 


   S  S  S  S  S  S  S  S  S  S  S  S  S  S  S  S   
--------------------------15----14-15----14-------| 
--------------15-------15-------------15-------15-| 
-----14-14-------14-14-------14-------------14----| 
--12-------12-------------------------------------| 
--------------------------------------------------| 
--------------------------------------------------| 


   S  S  S  S  S  S  S  S  S  S  S  S  S  S  S  S   
--------------------------------------------------| 
--------------15-------15-------------14-------14-| 
-----14-14-------14-14-------14-14-------14-14----| 
--12-------12-------------12-------12-------------| 
--------------------------------------------------| 
--------------------------------------------------| 


   S  S  S  S  S  S  S  S  S  S  S  S  S  S  S  S   
--------------------------15----14-15----14-------| 
--------------12-------12-------------15-------15-| 
-----14-14-------14-14-------14-------------14----| 
--12-------12-------------------------------------| 
--------------------------------------------------| 
--------------------------------------------------| 


   S  S  S  S  S  S  S  S  S  S  S  S  S  S  S  S   
--------------------------------------------------| 
--------------15-------15-------------15-------15-| 
-----14-14-------14-14-------14-14-------14-14----| 
--12-------12-------------12-------12-------------| 
--------------------------------------------------| 
--------------------------------------------------| 


   S  S  S  S  S  S  S  S  S  S  S  S  S  S  S  S   
--17----14-17-15-14----15-14-------14-------------| 
--------------------15-------15-------15-------15-| 
-----14-------------------------14-------14-------| 
--------------------------------------------12----| 
--------------------------------------------------| 
--------------------------------------------------| 


   S  S  S  S  S  S  S  S  S  S  S  S  S  S  S  S   
--------------------------------------------------| 
--------------15-------15-------------15-------15-| 
-----14-14-------14-14-------14-14-------14-14----| 
--12-------12-------------12-------12-------------| 
--------------------------------------------------| 
--------------------------------------------------| 


   S  S  S  S  S  S  S  S  S  S  S  S  S  S  S  S   
--------------------------15----14-15----14-------| 
--------------15-------15-------------15-------15-| 
-----14-14-------14-14-------14-------------14----| 
--12-------12-------------------------------------| 
--------------------------------------------------| 
--------------------------------------------------| 


   S  S  S  S  S  S  S  S  S  S  S  S  S  S  S  S   
--------------------------------------------------| 
--------------15-------15-------------15-------15-| 
-----14-14-------14-14-------14-14-------14-14----| 
--12-------12-------------12-------12-------------| 
--------------------------------------------------| 
--------------------------------------------------| 


   S  S  S  S  S  S  S  S  S  S  S  S  S  S  S  S   
--------------------------15----14-15----14-------| 
--------------15-------15-------------15-------15-| 
-----14-14-------14-14-------14-------------14----| 
--12-------12-------------------------------------| 
--------------------------------------------------| 
--------------------------------------------------| 


   S  S  S  S  S  S  S  S  S  S  S  S  S  S  S  S   
--------------------------------------------------| 
--------------15-------15-------------14-------14-| 
-----14-14-------14-14-------14-14-------14-14----| 
--12-------12-------------12-------12-------------| 
--------------------------------------------------| 
--------------------------------------------------| 


   S  S  S  S  S  S  S  S  S  S  S  S  S  S  S  S   
--------------------------15----14-15----14-------| 
--------------12-------12-------------15-------15-| 
-----14-14-------14-14-------14-------------14----| 
--12-------12-------------------------------------| 
--------------------------------------------------| 
--------------------------------------------------| 


   S  S  S  S  S  S  S  S  S  S  S  S  S  S  S  S   
--------------------------------------------------| 
--------------15-------15-------------15-------15-| 
-----14-14-------14-14-------14-14-------14-14----| 
--12-------12-------------12-------12-------------| 
--------------------------------------------------| 
--------------------------------------------------| 


   S  S  E   S  S  E   S  S  E  S  S  E    
-----17-15-----15-14-----14-12----12-10--| 
-----------------------------------------| 
--14--------12--------11--------9--------| 
-----------------------------------------| 
-----------------------------------------| 
-----------------------------------------| 


   S  S  S  S  S  S  S  S  S  S  S  S  S  S  S  S   
--------------------------------------------------| 
--------------15-------15-------------15-------15-| 
-----14-14-------14-14-------14-14-------14-14----| 
--12-------12-------------12-------12-------------| 
--------------------------------------------------| 
--------------------------------------------------| 


   S  S  S  S  S  S  S  S  S  S  S  S  S  S  S  S   
--------------------------15----14-15----14-------| 
--------------15-------15-------------15-------15-| 
-----14-14-------14-14-------14-------------14----| 
--12-------12-------------------------------------| 
--------------------------------------------------| 
--------------------------------------------------| 


   S  S  S  S  S  S  S  S  S  S  S  S  S  S  S  S   
--------------------------------------------------| 
--------------15-------15-------------15-------15-| 
-----14-14-------14-14-------14-14-------14-14----| 
--12-------12-------------12-------12-------------| 
--------------------------------------------------| 
--------------------------------------------------| 


   S  S  S  S  S  S  S  S  S  S  S  S  S  S  S  S   
--------------------------15----14-15----14-------| 
--------------15-------15-------------15-------15-| 
-----14-14-------14-14-------14-------------14----| 
--12-------12-------------------------------------| 
--------------------------------------------------| 
--------------------------------------------------| 


   S  S  S  S  S  S  S  S  S  S  S  S  S  S  S  S   
--15----14-15----14-15----14-15----14-15----14-15-| 
--------------15-------15-------15-------15-------| 
-----14-------------------------------------------| 
--------------------------------------------------| 
--------------------------------------------------| 
--------------------------------------------------| 


   S  S  S  S  S  S  S  S  S  S  S  S  S  S  S  S   
-----14-17----14-17-15-14-17-15-14-17-15-14-17-14-| 
--15-------15-------------------------------------| 
--------------------------------------------------| 
--------------------------------------------------| 
--------------------------------------------------| 
--------------------------------------------------| 


   S  S  S  S  S  S  S  S  S  S  S  S  S  S  S  S   
--14-17-15-14-17-15-14-17-15-14-17-15-14-17-15-14-| 
--------------------------------------------------| 
--------------------------------------------------| 
--------------------------------------------------| 
--------------------------------------------------| 
--------------------------------------------------| 


   S  S  S  S  S  S  S  S  S  S  S  S  S  S  E     
--14-17-15-14-17-15-14-17-15-14-17-15-14-17-15\--| 
-------------------------------------------------| 
-------------------------------------------------| 
-------------------------------------------------| 
-------------------------------------------------| 
-------------------------------------------------| 


  S S S S S S S S S S S S S S S S    S S S S S S S S S S S S S S S S   
----------------------------------|------------------5---2-5-3-2---3-| 
----------3-----3---------3-----3-|----------3-----3-------------3---| 
----2-2-----2-2-----2-2-----2-2---|----2-2-----2-2-----2-------------| 
--0-----0---------0-----0---------|--0-----0-------------------------| 
----------------------------------|----------------------------------| 
----------------------------------|----------------------------------| 


  S S S S S S S S S S S S E.  S    W                   W                  
--2-----2-----------------------|-------------------|-------------------| 
----3-----3-----3---------3---3-|--L----------------|--L----------------| 
------2-----2-------2-0---2---2-|--L----------------|--L----------------| 
--------------0---0-----0-0---0-|--L----------------|--L----------------| 
--------------------------------|-------------------|-------------------| 
--------------------------------|-------------------|-------------------| 


  W                   W                   
-------------------|-------------------|| 
--L----------------|--L----------------|| 
--L----------------|--L----------------|| 
--L----------------|--L----------------|| 
-------------------|-------------------|| 
-------------------|-------------------||                 
 Buy song Terbang Tenggelam on iTunes store

Support artists with purchashing the original song!


share Share
Fifa World Cup Qatar 2022 Soundtrack



0 Comments
Please sign-in to comment.

All Artists: # A B C D E F G H I J K L M N O P Q R S T U V W X Y Z