Sempurna

by Andra And The Backbone

Chord Gitar Sempurna by Andra And The Backbone - Musikord.com

318

CHORD MALIQ & D'ESSENTIALS SENANG

 
Intro : E 

E 
Kau begitu sempurna 
    C#m 
Dimataku kau begitu indah 
        A            
Kau membuat diriku  
     B 
Akan slalu memujamu 

E 
Disetiap langkahku 
      C#m 
Kukan selalu memikirkan dirimu 
      A 
Tak bisa kubayangkan  
  B                 C#m 
Hidupku tanpa cintamu 

   A                     B 
Janganlah kau tinggalkan diriku 
       C#m 
Takkan mampu menghadapi semua 
      A             B 
Hanya bersamamu ku akan bisa 

     E      B     A 
Kau adalah darahku 
     E      B      A 
Kau adalah jantungku 
     C#m     G#m       A 
Kau adalah hidupku lengkapi diriku 
   C#m      G#m     A   F#m... 
Oh sayangku kau begitu.... 
   E            C#m 
Sempurna.... sempurna.... 

E 
Kau genggam tanganku.... 
     C#m 
Saat diriku lemah dan terjatuh 
      A 
Kau bisikkan kata  
    B              C#m 
Dan hapus smua sesalku 

Musik : A B C#m 
Kunjungi www.musixindo.com
untuk melihat lirik Sempurna
                  Kau begitu sempurna
Dimataku kau begitu indah
kau membuat diriku akan slalu memujimu

Disetiap langkahku
Kukan slalu memikirkan dirimu
Tak bisa kubayangkan hidupku tanpa cintamu

Janganlah kau tinggalkan diriku
Takkan mampu menghadapi semua
Hanya bersamamu ku akan bisa

Reff:
Kau adalah darahku
Kau adalah jantungku
Kau adalah hidupku
Lengkapi diriku
Oh sayangku, kau begitu
Sempurna
Sempurna

Kau genggam tanganku
Saat diriku lemah dan terjatuh
Kau bisikkan kata dan hapus semua sesalku

Janganlah kau tinggalkan diriku
Takkan mampu menghadapi semua
Hanya bersamamu ku akan bisa

Reff:
Kau adalah darahku
Kau adalah jantungku
Kau adalah hidupku
Lengkapi diriku
Oh sayangku, kau begitu
Sempurna
Sempurna                
                  [intro] D D 

[verse] D Bm G-A Bm 

[bridge] G A Bm Bm G A 
           
[chorus] D A G D A G Bm F#m G Bm F#m G E D Bm 



>> Nah, tab buat masing2 chord kaya gini nih.. 

>> ini tab bagian intro: 

  [D] 
E ------------------------------------------------- 
B -3-------3---2-------2---0-------0---2-------2--- 
G -----2-----------2-----------2-----------2------- 
D -0-0---0---0-0-0---0---0-0-0---0---0-0-0---0---0- 
A ------------------------------------------------- 
E ------------------------------------------------- 

  [D] 
E ------------------------------------------------- 
B -3-------3---2-------2---0-------0---2-------2--- 
G -----2-----------2-----------2-----------2------- 
D -0-0---0---0-0-0---0---0-0-0---0---0-0-0---0---0- 
A ------------------------------------------------- 
E ------------------------------------------------- 


>> ini tab bagian verse (lagu): 

  [D] 
E ------------------------------------------------- 
B -3-------3---2-------2---0-------0---2-------2--- 
G -----2-----------2-----------2-----------2------- 
D -0-0---0---0-0-0---0---0-0-0---0---0-0-0---0---0- 
A ------------------------------------------------- 
E ------------------------------------------------- 

  [Bm] 
E ------------------------------------------------- 
B -3-------3---2-------2---0-------0---2-------2--- 
G -----2-----------2-----------2-----------2------- 
D ------------------------------------------------- 
A -2-2---2---2-2-2---2---2-2-2---2---2-2-2---2---2- 
E ------------------------------------------------- 

  [G]                     [A] 
E -2-------2---0-------0---2-------2---0-------0--- 
B -----3-----------3-----------3-----------3------- 
G ------------------------------------------------- 
D ------------------------------------------------- 
A -------------------------0-0---0---0-0-0---0---0- 
E -3-3---3---3-3-3---3---3------------------------- 

  [Bm] 
E ------------------------------------------------- 
B -3-------3---2-------2---0-------0---2-------2--- 
G -----2-----------2-----------2-----------2------- 
D ------------------------------------------------- 
A -2-2---2---2-2-2---2---2-2-2---2---2-2-2---2---2- 
E ------------------------------------------------- 


>> ini tab bagian bridge: 

  [G]                     [A] 
E -5-----------5-----------5-----------5----------- 
B -----5-----------5-----------5-----------5------- 
G ---------7-----------7-----------7-----------7--- 
D ------------------------------------------------- 
A -----------------------0-0-0---0---0-0-0---0---0- 
E -3-3---3---3-3-3---3----------------------------- 


  [Bm] 
E -5-----------5-----------5-----------5----------- 
B -----5-----------5-----------5-----------5------- 
G ---------7-----------7-----------7-----------7--- 
D ------------------------------------------------- 
A ------------------------------------------------- 
E -7-7---7---7-7-7---7---7-7-7---7---7-7-7---7---7- 

  [G]                     [A] 
E -5-----------5-----------5-----------0-x--------- 
B -----5-----------5-----------5---------x--------- 
G ---------7-----------7-----------7---6-x--------- 
D ---------------------------------------x--------- 
A -----------------------0-0-0---0---0-0-x--------- 
E -3-3---3---3-3-3---3-------------------x--------- 



>> ini tab bagian chorus: 

  [D]          [A]           [G] 
E ----------------------------2-----------2------------ 
B -3-------3----2h3------2--------3-----------3-------- 
G -----2-------------2----------------0-----------0---- 
D -0-0---0---0----------------------------------------- 
A --------------0--0---0---0--------------------------- 
E ----------------------------3-3---3---3-3-3---3---3-- 

  [D]          [A]           [G] 
E ----------------------------2-----------2------------ 
B -3-------3----2h3------2--------3-----------3-------- 
G -----2-------------2----------------0-----------0---- 
D -0-0---0---0----------------------------------------- 
A --------------0--0---0---0--------------------------- 
E ----------------------------3-3---3---3-3-3---3---3-- 

  [Bm]         [F#m]         [G] 
E ----------------------------2-----------2------------ 
B -3-------3----2h3------2--------3-----------3-------- 
G -----2-------------2----------------0-----------0---- 
D ----------------------------------------------------- 
A -2-2---2---2----------------------------------------- 
E --------------2--2---2---2--3-3---3---3-3-3---3---3-- 

  [Bm]         [F#m]         [G]          [E] 
E ----------------------------2--------------------2p0-0---- 
B -3-------3----2h3------2--------3--------------2-------3-- 
G -----2-------------2----------------0--------1------------ 
D ---------------------------------------------------------- 
A -2-2---2---2-------------------------------2-------------- 
E --------------2--2---2---2--3-3---3---3--0---------------- 

  [D] 
E ------------------------------------------------- 
B -3-------3---2-------2---0-------0---2-------2--- 
G -----2-----------2-----------2-----------2------- 
D -0-0---0---0-0-0---0---0-0-0---0---0-0-0---0---0- 
A ------------------------------------------------- 
E ------------------------------------------------- 

  [Bm] 
E ------------------------------------------------- 
B -3-------3---2-------2---0-------0---2-------2--- 
G -----2-----------2-----------2-----------2------- 
D ------------------------------------------------- 
A -2-2---2---2-2-2---2---2-2-2---2---2-2-2---2---2- 
E ------------------------------------------------- 

Tab by: Boy                
 Beli lagu Sempurna di iTunes store

Support artist dengan membeli lagu asli


share Bagikan



0 Komentar
Masuk untuk berkomentar.



Semua Artist: 0-9 A B C D E F G H I J K L M N O P Q R S T U V W X Y Z