Lagi Dan Lagi

by Andra And The Backbone

Chord Gitar Lagi Dan Lagi by Andra And The Backbone - Musikord.com

240

A 
Aku memang salah 
F#m 
Aku memang hina 
D      Bm            A 
Maafkanlah untuk semua 

A 
Apa yang terjadi 
F#m 
Tak mungkin kembali 
D       Bm        A 
Kini ku sendiri lagi 

D                E 
Karna kau memang tak pantas 
A              F#m 
Tersakiti lagi dan lagi.... 
D         E             A 
Teriris lagi tercabik lagi... 

Apa yang terjadi 
Tak mungkin kembali 
Kini ku sendiri lagi 

Karna kau memang tak pantas 
Tersakiti lagi dan lagi.... 
Karna kulewati batas 
Melukai lagi dan lagi.... 
Dan aku tak bisa tuk mengakhiri... 

Musik : A F#m D E A 

Aku memang salah 
Aku memang hina 
Maafkanlah untuk semua 

Karna kau memang tak pantas 
Tersakiti lagi dan lagi.... 
Karna kulewati batas 
Melukai lagi dan lagi.... 

D                E 
Karna kau memang tak pantas 
A               F#m 
Buat diriku ini tak tau diri 
D       E         F#m 
Kini ku sendiri lagi 
D       E          F#m 
Tak ada yang menemani 
D          E   
Dan jangan kembali.... 
   A 
Lagi..... 
Kunjungi www.musixindo.com
untuk melihat lirik Lagi Dan Lagi
                  [Chorus:]
Aku memang salah,
Aku memang hina,
Maafkanlah untuk semua.

Apa yang terjadi,
Tak mungkin kembali,
Kini ku sendiri lagi.

Kamu memang tak pantas,
Disakiti lagi dan lagi,
Teriris lagi,
Tercabik lagi.

[Chorus:]

Kamu memang tak pantas,
Disakiti lagi dan lagi
Aku lewati batas,
Lukai lagi dan lagi,
Dan aku tak bisa,
Untuk mengakhiri.

[Chorus:]

Karna kau memang tak pantas,
Disakiti lagi, dan lagi,
Karna ku lewati batas,
Lukai lagi dan lagi.

Karna kau memang tak pantas,
Memiliki diri tak tahu diri,
Kini kusendiri lagi,
Tak ada yang menemani,
Dan jangan kembali... Lagi.                
                  Capo fret ke 2
E-|--0-0-0--| F# dan 
E-|--5-5-5--| A 

   intro (clean/reverb) 
   `aku memang...` 
e-|-------7---------7---------| 
B-|----10---10---10---10------| 
G-|--9---------9---------9----| 
D-|---------------------------| 
A-|---------------------------| 
E-|---------------------------| 

   `untuk...` 
e-|------7-------7------------| 
B-|----9---9---9---9----------| 
G-|--9-------9-------9--------| 
D-|---------------------------| 
A-|---------------------------| 
E-|---------------------------| 

   `semua...` 
e-|-------7---------7---------| 
B-|----10---10---10---10------| 
G-|--9---------9---------9----| 
D-|---------------------------| 
A-|---------------------------| 
E-|---------------------------| 

   verse 1 (distorted) 
e-|----------------------------------------| 2x 
B-|----------------------------------------| 
G-|----------------------------------------| 
D-|-------7---6----------------------------| 
A-|-----------------7---7---4---5p4--------| 
E-|--5-5----5---5-5---5---5---5-----7-5----| 
     . .  . . . . . . . . . . . .   . . 

e-|----------------------------------------------------------------------| 
B-|----------------------------------------------------------------------| 
G-|----------------------------------------------------------------------| 
D-|----------------------------------------------------------------------| 
A-|--------11---12-----11---12-----12---14-----11---12---11-12-14p12p11--| 
E-|--0-0-0----0----0-0----0----0-0----0----0-0----0----0-----------------| 
     . . . .  .  . . .  . .  . . .  . .  . . .  . .  .   

e-|-----------------------------------------| 
B-|-----------------------------------------| 
G-|----------------------------7p6----------| 
D-|------7---7-----9---7---6-------7--------| 
A-|--5-5---5---5-5---5---5---5--------------| 
E-|-----------------------------------------| 
     . . . . . . . . . . . . . 
e-|-----------------------------------------| 
B-|-----------------------------------------| 
G-|-----------------------------------------| 
D-|------7---6-----9---7---6---9p7p6--------| 
A-|--7-7---7---7-7---7---7---7--------------| 
E-|-----------------------------------------| 
     . . . . . . . . . . . . . 

   pre chorus 
e-|----------------------------------------------------------------------| 
B-|----------------------------------------------------------------------| 
G-|----------------------------------------------------------------------| 
D-|----------------------------------------------------------------------| 
A-|--------11---12-----11---12-----12---14-----11---12---11-12-14p12p11--| 
E-|--0-0-0----0----0-0----0----0-0----0----0-0----0----0-----------------| 
     . . . .  .  . . .  . .  . . .  . .  . . .  . .  .   
   
   chorus 
e-|-------------------------------------------| 
B-|-------------------------------------------| 
G-|-------------------------------------------| 
D-|------7---7-----9---7---6---9p7p6----------| 
A-|--5-5---5---5-5---5---5---5----------------| 
E-|-------------------------------------------| 
     . . . . . . . . . . . . . 

e-|-------------------------------------------| 
B-|-------------------------------------------| 
G-|-------------------------------------------| 
D-|------7---6-----9---7---6---9p7p6----------| 
A-|--7-7---7---7-7---7---7---7----------------| 
E-|-------------------------------------------| 
     . . . . . . . . . . . . . 

e-|-------------------------------------------| 
B-|-------------------------------------------| 
G-|-------------------------------------------| 
D-|------7---6-----9---7---6---9p7p6----------| 
A-|-------------------------------------------| 
E-|--5-5---5---5-5---5---5---5----------------| 
     . . . . . . . . . . . . . 

e-|-------------------------------------------| 
B-|-------------------------------------------| 
G-|-------------------------------------------| 
D-|-------------------------------------------| 
A-|------12---11-----14---12---11---14p12p11--| 
E-|--0-0----0----0-0----0----0----0-----------| 
     . . . . . . . . . . . . . 

e-|-----------------------------------------| 
B-|-----------------------------------------| 
G-|----------------------------7p6----------| 
D-|------7---7-----9---7---6-------7--------| 
A-|--5-5---5---5-5---5---5---5--------------| 
E-|-----------------------------------------| 
     . . . . . . . . . . . . . 

e-|-------------------------------------------| 
B-|-------------------------------------------| 
G-|-------------------------------------------| 
D-|------7---6-----9---7---6---9p7p6----------| 
A-|--7-7---7---7-7---7---7---7----------------| 
E-|-------------------------------------------| 
     . . . . . . . . . . . . . 

   verse 2 
e-|----------------------------------------|   4x 
B-|----------------------------------------| 
G-|----------------------------------------| 
D-|-------7---6----------------------------| 
A-|-----------------7---7---4---5p4--------| 
E-|--5-5----5---5-5---5---5---5-----7-5----| 
     . .  . . . . . . . . . . . .   . .  
   
e-|----------------------------------------------------------------------| 
B-|----------------------------------------------------------------------| 
G-|----------------------------------------------------------------------| 
D-|----------------------------------------------------------------------| 
A-|--------11---12-----11---12-----12---14-----11---12---11-12-14p12p11--| 
E-|--0-0-0----0----0-0----0----0-0----0----0-0----0----0-----------------| 
     . . . .  .  . . .  . .  . . .  . .  . . .  . .  .   

e-|-----------------------------------------| 
B-|-----------------------------------------| 
G-|----------------------------7p6----------| 
D-|------7---7-----9---7---6-------7--------| 
A-|--5-5---5---5-5---5---5---5--------------| 
E-|-----------------------------------------| 
     . . . . . . . . . . . . . 

e-|-----------------------------------------| 
B-|-----------------------------------------| 
G-|-----------------------------------------| 
D-|------7---6-----9---7---6---9p7p6--------| 
A-|--7-7---7---7-7---7---7---7--------------| 
E-|-----------------------------------------| 
     . . . . . . . . . . . . . 

   pre chorus 
e-|----------------------------------------------------------------------| 
B-|----------------------------------------------------------------------| 
G-|----------------------------------------------------------------------| 
D-|----------------------------------------------------------------------| 
A-|--------11---12-----11---12-----12---14-----11---12---11-12-14p12p11--| 
E-|--0-0-0----0----0-0----0----0-0----0----0-0----0----0-----------------| 
     . . . .  .  . . .  . .  . . .  . .  . . .  . .  .   
  
   chorus 

   solo (Kalo kamu punya w/ah, sikat saja!!)  
   guitar 1 
     A5                                          Ab5  
e-|---------------------------------------------------------------| 
B-|---------------------------------------------------------------| 
G-|--14-14---13-13---9-9---6-6---14-14---13-13---9-9---6-6--------| 
D-|---------------------------------------------------------------| 
A-|---------------------------------------------------------------| 
E-|---------------------------------------------------------------| 

     F#     
e-|---------------------------------------------------------------| 
B-|---------------------------------------------------------------| 
G-|--14-14---13-13---9-9---6-6---14-14---13-13---9-9---6-6--------| 
D-|---------------------------------------------------------------| 
A-|---------------------------------------------------------------| 
E-|---------------------------------------------------------------| 
    
   guitar 2 comes in (1:53) 
e-|---------------------------------------------------------------| 
B-|---------------------------------------------------------------| 
G-|--18-18---16-16---14-14---9-9---18-18---16-16---14-14---9-9----| 
D-|---------------------------------------------------------------| 
A-|---------------------------------------------------------------| 
E-|---------------------------------------------------------------| 
    
   guitar 1 
     D5            E5 
e-|---------------------------------------------------------------| 
B-|---------------------------------------------------------------| 
G-|--4-4-4-4-4-4h6------------4h6---------------------------------| 
D-|----------------6-6-6-6-6------7-------------------------------| 
A-|---------------------------------------------------------------| 
E-|---------------------------------------------------------------| 
   guitar 2  
e-|---------------------------------------------------------------| 
B-|---------------------------------------------------------------| 
G-|--7-7-7-7-7-7h9-4-4-4-4-4-4h6-7--------------------------------| 
D-|---------------------------------------------------------------| 
A-|---------------------------------------------------------------| 
E-|---------------------------------------------------------------| 

   back to intro  

   chorus                  
 Beli lagu Lagi Dan Lagi di iTunes store

Support artist dengan membeli lagu asli


share Bagikan



0 Komentar
Masuk untuk berkomentar.



Semua Artist: 0-9 A B C D E F G H I J K L M N O P Q R S T U V W X Y Z