Maldición (Cap.10: Cordura)

by ROSALÍA

407

(Con la guitarra afinada medio tono más bajo: Eb-Ab-Db-Gb-Bb-Eb)
e|--------------------------------------------------------------------------------------|
B|--------------------------------------------------------------------------------------|
G|--------------------------------------------------------------------------------------|
D|---------------9--11----------------9--11---------------------------------------------|
A|--------8--11----------------8--11---------9--11--12--14--12--11--9-------------------|
E|-9--10----------------9--10------------------------------------------12--10--12--9--10|
 
e|--------------------------------------------------------------------------------------|
B|--------------------------------------------------------------------------------------|
G|--------------------------------------------------------------------------------------|
D|---------------9--11----------------9--11---------------------------------------------|
A|--------8--11----------------8--11---------9--11--12--14--12--11--9-------------------|
E|-9--10----------------9--10------------------------------------------12--10--12--9--10|
 
e|--------------------------------------------------------------------------------------|
B|--------------------------------------------------------------------------------------|
G|--------------------------------------------------------------------------------------|
D|---------------9--11----------------9--11-----9--11--9--8-----12--11--9--8------------|
A|--------8--11----------------8--11---------9---------------9----------------10--9-----|
E|-9--10----------------9--10-----------------------------------------------------------|
 
e|--------------------------------------------------------------------------------------|
B|--------------------------------------------------------------------------------------|
G|---------------9--11---------------9--11----------------------------------------------|
D|--------8--11---------------8--11-------------------9--11--9--11--9------9------9-----|
A|-----9----------------7--9-------------------7--11-------------------11-----11--------|
E|-10---------------------------------------9-------------------------------------------|
 
e|--------------------------------------------------------------------------------------|
B|--------------------------------------------------------------------------------------|
G|----------------------------------------------------------4-----------------6---------|
D|---------------9--11----------------9--11--------------5--------------4--8------------|
A|--------8--11----------------8--11---------------2--5-----------1--4------------------|
E|-9--10----------------9--10----------------0--3--------------2------------------------|
 
e|--------------------------------------------------------------------------------------|
B|--------------------------------------------------------------------------------------|
G|---------------9--11---------------9--11----------------------------------------------|
D|--------8--11---------------8--11-------------------9--11--9--11--9------9------9-----|
A|-----9----------------7--9-------------------8--11-------------------11-----11--------|
E|-10---------------------------------------9-------------------------------------------|
 
e|--------------------------------------------------------------------------------------|
B|--------------------------------------------------------------------------------------|
G|----------------------------------------------------------4-----------------6---------|
D|---------------9--11----------------9--11--------------5--------------4--8------------|
A|--------8--11----------------8--11---------------2--5-----------1--4------------------|
E|-9--10----------------9--10----------------0--3--------------2------------------------|
 
e|--------------------------------------------------------------------------------------|
B|--------------------------------------------------------------------------------------|
G|--------------------------------------------------------------------------------------|
D|----7--11--7-----7---------7---------------6--9--6------------------------------------|
A|-9------------9---------9-----9------9--7-----------7--5--4---------------------------|
E|--------------------10-----------10---------------------------------------------------|
 
A
Ay, el querer
                      E  D
Que en un momento quisiera
                   D  E  A
Estar loca y no querer
                        F#m  E
Porque el querer causa pena
                   E  D  A
Pena que no tiene fin
          D           C#
Y el loco vive sin ella
 
e|--------------------------------------------------------------------------------------|
B|--------------------------------------------------------------------------------------|
G|--------------------------------------------------------------------------------------|
D|---------------9--11----------------9--11-----9--11--9--8-----12--11--9--8------------|
A|--------8--11----------------8--11---------9---------------9----------------10--9-----|
E|-9--10----------------9--10-----------------------------------------------------------|
 
e|--------------------------------------------------------------------------------------|
B|--------------------------------------------------------------------------------------|
G|---------------9--11---------------9--11----------------------------------------------|
D|--------8--11---------------8--11-------------------9--11--9--11--9------9------9-----|
A|-----9----------------7--9-------------------8--11-------------------11-----11--------|
E|-10---------------------------------------9-------------------------------------------|
 
e|--------------------------------------------------------------------------------------|
B|--------------------------------------------------------------------------------------|
G|----------------------------------------------------------4-----------------6---------|
D|---------------9--11----------------9--11--------------5--------------4--8------------|
A|--------8--11----------------8--11---------------2--5-----------1--4------------------|
E|-9--10----------------9--10----------------0--3--------------2------------------------|
 
e|--------------------------------------------------------------------------------------|
B|--------------------------------------------------------------------------------------|
G|---------------9--11---------------9--11----------------------------------------------|
D|--------8--11---------------8--11-------------------9--11--9--11--9------9------9-----|
A|-----9----------------7--9-------------------8--11-------------------11-----11--------|
E|-10---------------------------------------9-------------------------------------------|
 
e|--------------------------------------------------------------------------------------|
B|--------------------------------------------------------------------------------------|
G|----------------------------------------------------------4-----------------6---------|
D|---------------9--11----------------9--11--------------5--------------4--8------------|
A|--------8--11----------------8--11---------------2--5-----------1--4------------------|
E|-9--10----------------9--10----------------0--3--------------2------------------------|
 
e|--------------------------------------------------------------------------------------|
B|--------------------------------------------------------------------------------------|
G|--------------------------------------------------------------------------------------|
D|----7--11--7-----7---------7---------------6--9--6--9--6-----6--9--6------------------|
A|-9------------9---------9-----9------9--7-----------------7-----------7--5--4---------|
E|--------------------10-----------10---------------------------------------------------|
 
A
He dejao un reguero
      D                E
De sangre por el suelo
      A
He dejao un reguero
       D
Que me lleva al primer día
       E           A
Que te dije que te quiero
     D     E      D  C#
Pa' saber lo que decía
 
A
Ay, el querer
                      E  D
Que en un momento quisiera
                   D  E  A
Estar loca y no querer
                        F#m  E
Porque el querer causa pena
                   E  D  A
Pena que no tiene fin
          D         (C#)
Y el loco vive sin ella
Visit www.musixindo.com
to see the lyrics Maldición (Cap.10: Cordura)
                  M'an dicho que no hay sali'a
Por esta calle que voy
M'an dicho que no hay sali'a
Yo la tengo que encontrar
Aunque me cueste la vida
O aunque tenga que matar

Ay, el querer
Que en un momento quisiera
Estar loca y no querer
Porque el querer causa pena
Pena que no tiene fin
Y el loco vive sin ella

No le temas al camino
Es como una maldición
No le temas al camino
Si la alumbro, la confirmo
Ya lo sabes, es lo que pasa
Y ninguno quie'e decirlo

He deja'o un reguero
De sangre por el suelo
He deja'o un reguero
Que me lleva al primer día
Que te dije que te quiero
Pa' saber lo que decías

Ay, el querer
Que en un momento quisiera
Estar loca y no querer
Porque el querer causa pena
Pena que no tiene fin
Y el loco vive sin ella                
Tab not available
 Buy song Maldición (Cap.10: Cordura) on iTunes store

Support artists with purchashing the original song!

share Share
TikTok top songs playlist 2022



0 Comments
Please sign-in to comment.

All Artists: # A B C D E F G H I J K L M N O P Q R S T U V W X Y Z