Happenstance

by The Church

104

[Verse 1]
 
Dm         Dsus4 Dm   Dsus2  Dm Am            Asus4  Am
  When the dis - tant charge of   love is felt
Dm        Dsus4 Dm Dsus2 Dm Am           Asus4  Am
  And the fruit is hea - vy  on the vine
Dm            Dsus4  Dm  Dsus2 Dm  Am             Asus4  Am
  The rivers rush - ing as    your,  snow it melts
Dm         Dsus4 Dm   Dsus2 Dm Am                     Asus4  Am
  I should take  some time,      really make you mine
 
[Chorus]
 
Acoustic guitar:
   Fmaj7     Dmaj7            Fmaj7     Dmaj7
e|-0---------2----------------0---------2--------------------------|
B|-1---------2----------------1---------2--------------------------|
G|-2---------2----------------2---------2--------------------------|
D|-3---------4----------------3---------4--------------------------|
A|-0---------5----------------0---------5--------------------------|
E|-1--------------------------1------------------------------------|
               Happenstance…               Such a charmer…
 
Electric guitar:
 
e|-------0---------2----------------0---------2--------------------|
B|-----1---------2----------------1---------2---------------2------|
G|---2---------2----------------2---------2-------------------2----|
D|-3---------0----------------3---------0-----------------------2--|
A|-----------------------------------------------------------------|
E|-----------------------------------------------------------------|
 
 
Acoustic guitar:
   Gm7                      Em                                Gm7
e|-3------------------------0---------------------------------3-------|
B|-3------------------------0---------------------------------3-------|
G|-3------------------------0---------------------------------3-------|
D|-3------------------------2---------------------------------3-------|
A|-5------------------------2---------------------------------5-------|
E|-3------------------------0---------------------------------3-------|
    Like an extinguished star You're gone, yet still remain
 
 
Electric guitar:
 
e|--------------------------------0-----------------------------------|
B|------------------------------0-----------------------------2-------|
G|----------------------------0---------------------------------2-----|
D|--------------------------2-------------------------------------2---|
A|--------------------------------------------------------------------|
E|--------------------------------------------------------------------|
 
 
Acoustic guitar:
                             Em                     E7
e|---------------------------0----------------------0-----------------|
B|---------------------------0----------------------0-----------------|
G|---------------------------0----------------------1-----------------|
D|---------------------------2----------------------0-----------------|
A|---------------------------2----------------------2-----------------|
E|---------------------------0----------------------0-----------------|
   And you've taken it so far Return to outer space
 
 
Electric guitar:
 
e|----------------------------------0---------------------------------|
B|--------------------------------0-----------------------------------|
G|------------------------------0-------------------9-----------------|
D|----------------------------2-----------------------9---------------|
A|------------------------------------------------------11------------|
E|--------------------------------------------------------------------|
 
[Verse 2]
 
      Dm Dsus4 Dm Dsus2 Dm Am        Asus4  Am
If we lay    me          beside you
     Dm Dsus4 Dm Dsus2 Dm Am     Asus4  Am
Your golden  hair         frozen
 
[Chorus]
 
Acoustic guitar:
   Fmaj7     Dmaj7             Fmaj7     Dmaj7
e|-0---------2-----------------0---------2---------------------------|
B|-1---------2-----------------1---------2---------------------------|
G|-2---------2-----------------2---------2---------------------------|
D|-3---------4-----------------3---------4---------------------------|
A|-0---------5-----------------0---------5---------------------------|
E|-1---------------------------1-------------------------------------|
               Happenstance…                Such a charmer…
 
Electric guitar:
 
e|-------0---------2-----------------0---------2---------------------|
B|-----1---------2-----------------1---------2---------------2-------|
G|---2---------2-----------------2---------2-------------------2-----|
D|-3---------0-----------------3---------0-----------------------2---|
A|-------------------------------------------------------------------|
E|-------------------------------------------------------------------|
 
 
Acoustic guitar:
   Gm7                     Em              Gm7
e|-3-----------------------0---------------3-----------------------|
B|-3-----------------------0---------------3-----------------------|
G|-3-----------------------0---------------3-----------------------|
D|-3-----------------------2---------------3-----------------------|
A|-5-----------------------2---------------5-----------------------|
E|-3-----------------------0---------------3-----------------------|
    Close your eyes in the dark and open a door
 
 
Electric guitar:
 
e|--------------------------------0--------------------------------|
B|------------------------------0--------------2-------------------|
G|----------------------------0------------------2-----------------|
D|--------------------------2----------------------2---------------|
A|-----------------------------------------------------------------|
E|-----------------------------------------------------------------|
 
 
Acoustic guitar:
                       E7                   E
e|---------------------0--------------------0-------------|
B|---------------------0--------------------0-------------|
G|---------------------1--------------------1-------------|
D|---------------------0--------------------2-------------|
A|---------------------2--------------------2-------------|
E|---------------------0--------------------0-------------|
   You feel the energy arc  You're not here anymore
 
[Verse 3]
Dm         Dsus4   Dsus2 Dm Am               Asus  Am
  When the honeyed days,      of love return
Dm        Dsus    Dm    Am              Asus  Am
  And the king is drunk  upon his throne
Dm       Dsus   Dm     Am             Asus  Am
  City's empty and the,  crystal burnt
Dm         Dsus  Dm       Am                  Asus  Am
  I should take some space   be with you some place
 
 
[Solo]
 
Acoustic guitar:
       Fmaj7             Dmaj7     Fmaj7         Dmaj7
e|-----0-----------------2---------0-------------2--------|
B|-----1-----------------2---------1-------------2--------|
G|-----2-----------------2---------2-------------2--------|
D|-----3-----------------4---------3-------------4--------|
A|-----0-----------------5---------0-------------5--------|
E|-----1---------------------------1----------------------|
 
 
Electric guitar w/Ebow:
 
e|--------------------------------------------------------|
B|--------------------------------------------------------|
G|-12/14--14\12-12\10-10\9--9\7---7/9--9\7-7\5-4-4/5\3----|
D|--------------------------------------------------------|
A|--------------------------------------------------------|
E|--------------------------------------------------------|
 
 
Acoustic guitar:
   Gm7     Em     Gm7    E
e|-3-------0------3------0-----------------------|
B|-3-------0------3------0-----------------------|
G|-3-------0------3------1-----------------------|
D|-3-------2------3------2-----------------------|
A|-5-------2------5------2-----------------------|
E|-3-------0------3------0-----------------------|
 
 
Electric guitar w/Ebow:
 
e|-----------------------------------------------|
B|-----------------------------------------------|
G|-0-----9/14-----0------------------------------|
D|---------------------5\2-----------------------|
A|-----------------------------------------------|
E|-----------------------------------------------|
 
[Verse 3]
Dm        Dsus4 Dm Dsus2 Dm  Am           Asus4  Am
 When the hopeless nights of,   love have gone
Dm       Dsus4 Dm  Dsus2 Dm Am           Asus4  Am
 And the spirits are still,   within the trees
Dm        Dsus4 Dm Dsus2 Dm Am     Asus4  Am
 And we're running back to,    Albion
Dm        Dsus4 Dm Dsus2 Dm Am            Asus4  Am
 I should take some chance    given happenstance
 
[Outro]
 
Acoustic guitar:
   Fmaj7     Dmaj7     Fmaj7    Dmaj7
e|-0---------2---------0--------2----------------|
B|-1---------2---------1--------2----------------|
G|-2---------2---------2--------2----------------|
D|-3---------4---------3--------4----------------|
A|-0---------5---------0--------5----------------|
E|-1-------------------1-------------------------|
 
 
Electric guitar:
 
e|-------0---------2---------0---------2---------|
B|-----1---------2---------1---------2-----------|
G|---2---------2---------2---------2-------------|
D|-3---------0---------3---------0---------------|
A|-----------------------------------------------|
E|-----------------------------------------------|
 
 
Acoustic guitar:
   Fmaj7     Dmaj7             Fmaj7     Dmaj7
e|-0---------2-----------------0---------2---------------------------|
B|-1---------2-----------------1---------2---------------------------|
G|-2---------2-----------------2---------2---------------------------|
D|-3---------4-----------------3---------4---------------------------|
A|-0---------5-----------------0---------5---------------------------|
E|-1---------------------------1-------------------------------------|
               Happenstance…                Such a charmer…
 
Electric guitar:
 
e|-------0---------2-----------------0---------2---------------------|
B|-----1---------2-----------------1---------2---------------2-------|
G|---2---------2-----------------2---------2-------------------2-----|
D|-3---------0-----------------3---------0-----------------------2---|
A|-------------------------------------------------------------------|
E|-------------------------------------------------------------------|
 
 
Acoustic guitar:
   Fmaj7     Dmaj7     Fmaj7    Dmaj7        Fmaj7
e|-0---------2---------0--------2------------0-----|
B|-1---------2---------1--------2------------1-----|
G|-2---------2---------2--------2------------2-----|
D|-3---------4---------3--------4------------3-----|
A|-0---------5---------0--------5------------0-----|
E|-1-------------------1---------------------1-----|
 
 
Electric guitar:
 
e|-------0---------2---------0---------2-----0-----|
B|-----1---------2---------1---------2-------------|
G|---2---------2---------2---------2------------2--|
D|-3---------0---------3---------0-----------------|
A|-------------------------------------------------|
E|-------------------------------------------------|
Visit www.musixindo.com
to see the lyrics Happenstance
                  When the distant charge of love is felt
And the fruit is heavy on the vine
Rivers rushing as the snow it melts
I should take some time
Really make you mine

Happenstance
Such a charmer

Like an extinguished star
You're gone yet still remain
And you've taken it so far
Return to outer space

If I lay me beside you
Your golden hair frozen

Happenstance
Such a charmer

Close your eyes in the dark
And open up a door
You feel the energy arc
You're not here anymore

When the honeyed days of love return
And the king is drunk upon his throne
City's empty and the crystal burnt
I should take some space
Be with you some place

When the hopeless nights of love have gone
And the spirits are still within the trees
And we're running back to Albion
I should take some chance
Given happenstance

Happenstance
Such a charmer                
Tab not available
 Buy song Happenstance on iTunes store

Support artists with purchashing the original song!

share Share
TikTok top songs playlist 2022



0 Comments
Please sign-in to comment.

All Artists: # A B C D E F G H I J K L M N O P Q R S T U V W X Y Z