Bukod-Tangi

by Unique Salonga

523

Capo: 2nd fret

[Intro]
G    D Am
G    D Am
G    D Am
G    D Am
 
 
[Verse 1]
G
Kahit may paghiyaw sa ‘king pangalan at
G                               D
Kahit naririnig ang palakpakan ay
   Am                 G
Ramdam ko ang pag-iisa
 
 
[Verse 2]
G
Kahit pa na ako’y habul-habulin at
G                               D
Kahit marami mang tumatangkilik ay
   Am                 G
Ramdam ko ang pag-iisa
 
 
[Chorus]
Dm        Am         G
Oh, ang pagkakakilanlan
        B        Em
Unti-unting naglalaho
  A     Cm   D        G
Muli pa ba akong mabubuo?
 
 
[Instrumental]
G    D Am
G    D Am
G    D Am
G    D Am
 
 
[Verse 3]
G
Kahit na magdamagan pang puriin at
G                               D
Kahit pa na ako ang pag-usapan ay
    Am               G
Ramdam ko ang pag-iisa
 
 
[Chorus]
Dm         Am         G
Oh, ang pagkakakilanlan
        B        Em
Unti-unting naglalaho
  A    Cm     D
Muli pa ba akong mabubu
Dm          Am       G
Oh, ang pagkakakilanlan
       B         Em
Unti-unting naglalaho
   A    Cm   D        G
Muli pa ba akong mabubuo?
 
 
[Outro]
 
e|---------------|---------------|---------------|---------------|
B|---0-----------|---0-----------|---0-----------|---0-----------|
G|------0--------|------0--------|------0--------|------0--------| x2
D|---------0--2--|---------0--2--|---------0--2--|---------0--2--|
A|---------------|---------------|---------------|---------------|
E|3--------------|3--------------|3--------------|3--------------|
 
G D             Am
  Ramdam ko ang pag-iisa
 
 
e|---------------|---------------|---------------|---------------|
B|---0-----------|---0-----------|---0-----------|---0-----------|
G|------0--------|------0--------|------0--------|------0--------| x2
D|---------0--2--|---------0--2--|---------0--2--|---------0--2--|
A|---------------|---------------|---------------|---------------|
E|3--------------|3--------------|3--------------|3--------------|
 
 
G D             Am
  Ramdam ko ang pag-iisa
D             Am       G
Ramdam ko ang pag-iisa
D             Am       G
Ramdam ko ang pag-iisa
D             Am       G
Ramdam ko ang pag-iisa
D             Am       G
Ramdam ko ang pag-iisa
D             Am       G
Ramdam ko ang pag-iisa
Visit www.musixindo.com
to see the lyrics Bukod-Tangi
                  Kahit may paghiyaw sa 'king pangalan at
Kahit naririnig ang palakpakan ay
Ramdam ko ang pag-iisa

Kahit pa na ako'y habol-habulin at
Kahit marami mang tumatangkilik ay
Ramdam ko ang pag-iisa

Oh, ang pagkakakilanlan
Unti-unting naglalaho
Muli pa ba akong mabubuo

Kahit na magdamagan pang purihin at
Kahit pa na ako ang pag-usapan ay
Ramdam ko ang pag-iisa

Oh, ang pagkakakilanlan
Unti-unting naglalaho
Muli pa ba akong mabubuo
Oh, ang pagkakakilanlan
Unti-unting naglalaho
Muli pa ba akong mabubuo

Ramdam ko ang pag-iisa...                
Tab not available
 Buy song Bukod-Tangi on iTunes store

Support artists with purchashing the original song!


share Share
Fifa World Cup Qatar 2022 Soundtrack



0 Comments
Please sign-in to comment.

All Artists: # A B C D E F G H I J K L M N O P Q R S T U V W X Y Z