Backstage (Tab)

by Neffex

480

Chord not Available

Chord not Available

Be the first to submit Backstage (Tab). Get more points to every chord you submit

add Submit chords
                  All the good girls you take out for dinner
But all the bad girls you take out for liquor
All the good girls they don't pull the trigger
But all that bad girls they pull it much quicker
It's never too late to get down
And party
Switching from good to bad cuz your naughty
Feel it inside oh inside your body
Let it come out with shots of Bacardi

Just let your body go
We'll take it nice and slow
Just let your mind be free
And come in close to me

Oh the good girls they go to heaven
But the bad girls they get backstage

All the good girls they act like beginners
But all the bad girls they know that they're sinners
All the good girls are really good kissers
But all the bad girls are really good strippers
Baby don't slow it down let's keep going
I think that you and I should lose clothing
I think that all good girls just need coaching
So let me show ya how let's get on it!

Just let your body
Go we'll take it nice and slow
Just let your mind be free
And come in close to me

Oh the good girls they go to heaven
But the bad girls they get                
                  [Intro]

E------------------------------------------------------------------------------------------|
B------------------------------------------------------------------------------------------|
G------------------------------------------------------------------------------------------|
D------------------------------------------------------------------------------------------|
A------------------------------------------------------------------------------------------|
D--0~--000000000030--5~-555555-5^-5^-5^-3-0------------------------------------------------|
       ............     ......
[Verse]
E------------------------------------------------------------------------------------------|
B------------------------------------------------------------------------------------------|
G------------------------------------------------------------------------------------------|   4x
D------------------------------------------------------------------------------------------|
A------------------------------------------------------------------------------------------|
D--0~--000000000030--5~-555555-5^-5^-5^-3-0------------------------------------------------|
       .......... .     ......

slower part
rythm
E------------------------------------------------------------------------------------------|
B------------------------------------------------------------------------------------------|
G------------------------------------------------------------------------------------------|
D--0~-------3~---5~-------3~----0~-------3~----5~--------3~--------------------------------|
A--0~-------3~---5~-------3~----0~-------3~----5~--------3~--------------------------------|
D--0~-------3~---5~-------3~----0~-------3~----5~--------3~--------------------------------|

lead
E------------------------------------------------------------------------------------------|
B------------------------------------------------------------------------------------------|
G------------------------------------------------------------------------------------------|    2x
D---14^~-----------10h12~--------------14^~-----------10h12~-------------------------------|
A------------------------------------------------------------------------------------------|
D------------------------------------------------------------------------------------------|

[Pre-Chorus]
E------------------------------------------------------------------------------------------|
B------------------------------------------------------------------------------------------|
G------------------------------------------------------------------------------------------|    2x
D------------------------------------------------------------------------------------------|
A------------------------------------------------------------------------------------------|
D--00000000000000003333555555555555555555553333--------------------------------------------|
   ............................................


[Chorus rhythm]
E------------------------------------------------------------------------------------------|
B------------------------------------------------------------------------------------------|
G------------------------------------------------------------------------------------------|
D--0~-------3~---------5~-------0~-------3~----------5~------------------------------------|
A--0~-------3~---------5~-------0~-------3~----------5~------------------------------------|
D--0~-------3~---------5~-------0~-------3~----------5~------------------------------------|

E------------------------------------------------------------------------------------------|
B------------------------------------------------------------------------------------------|
G------------------------------------------------------------------------------------------|
D-------0~--3~---------5~-------0~-------3~----------5~------------------------------------|
A-------0~--3~---------5~-------0~-------3~----------5~------------------------------------|
D-------0~--3~---------5~-------0~-------3~----------5~------------------------------------|

[Chorus lead
]
E------------------------------------------------------------------------------------------|
B------------------------------------------------------------------------------------------|
G--12^-12-11-12-11--12^-12-11-12-11-----12^-12-11-12-11--12^-12-11-12-11-------------------|
D-----------------------------------12-----------------------------------------------------|
A------------------------------------------------------------------------------------------|
D------------------------------------------------------------------------------------------|

E------------------------------------------------------------------------------------------|
B------------------------------------------------------------------------------------------|
G--12^-12-11-12-11--12^-12-11-12-11-----12^-12-11-12-11--12^-12-11-12^---------------------|
D-----------------------------------12-----------------------------------------------------|
A------------------------------------------------------------------------------------------|
D------------------------------------------------------------------------------------------|

E------------------------------------------------------------------------------------------|
B------------------------------------------------------------------------------------------|
G------------12-11--12^-12-11-12-11-----12^-12-11-12-11--12^-12-11-12-11-------------------|
D-----------------------------------12-----------------------------------------------------|
A------------------------------------------------------------------------------------------|
D------------------------------------------------------------------------------------------|

E------------------------------------------------------------------------------------------|
B------------------------------------------------------------------------------------------|
G--12^-12-11-12-11--12^-12-11-12-11-----12^-12-11-12-11--12^-12-11-12^---------------------|
D-----------------------------------12-----------------------------------------------------|
A------------------------------------------------------------------------------------------|
D------------------------------------------------------------------------------------------|

last note of the lead chorus is a full bend

[Verse]
E------------------------------------------------------------------------------------------|
B------------------------------------------------------------------------------------------|
G------------------------------------------------------------------------------------------|   4x
D------------------------------------------------------------------------------------------|
A------------------------------------------------------------------------------------------|
D--0~--000000000030--5~-555555-5^-5^-5^-3-0------------------------------------------------|
       .......... .     ......

slower part
rythm
E------------------------------------------------------------------------------------------|
B------------------------------------------------------------------------------------------|
G------------------------------------------------------------------------------------------|
D--0~-------3~---5~-------3~----0~-------3~----5~--------3~--------------------------------|
A--0~-------3~---5~-------3~----0~-------3~----5~--------3~--------------------------------|
D--0~-------3~---5~-------3~----0~-------3~----5~--------3~--------------------------------|

lead
E------------------------------------------------------------------------------------------|
B------------------------------------------------------------------------------------------|
G------------------------------------------------------------------------------------------|    2x
D---14^~-----------10h12~--------------14^~-----------10h12~-------------------------------|
A------------------------------------------------------------------------------------------|
D------------------------------------------------------------------------------------------|

[Pre-Chorus]
E------------------------------------------------------------------------------------------|
B------------------------------------------------------------------------------------------|
G------------------------------------------------------------------------------------------|    2x
D------------------------------------------------------------------------------------------|
A------------------------------------------------------------------------------------------|
D--00000000000000003333555555555555555555553333--------------------------------------------|
   ............................................

[Chorus rhythm]
E------------------------------------------------------------------------------------------|
B------------------------------------------------------------------------------------------|
G------------------------------------------------------------------------------------------|
D--0~-------3~---------5~-------0~-------3~----------5~------------------------------------|
A--0~-------3~---------5~-------0~-------3~----------5~------------------------------------|
D--0~-------3~---------5~-------0~-------3~----------5~------------------------------------|

E------------------------------------------------------------------------------------------|
B------------------------------------------------------------------------------------------|
G------------------------------------------------------------------------------------------|
D-------0~--3~---------5~-------0~-------3~----------5~------------------------------------|
A-------0~--3~---------5~-------0~-------3~----------5~------------------------------------|
D-------0~--3~---------5~-------0~-------3~----------5~------------------------------------|

[Chorus lead
]
E------------------------------------------------------------------------------------------|
B------------------------------------------------------------------------------------------|
G--12^-12-11-12-11--12^-12-11-12-11-----12^-12-11-12-11--12^-12-11-12-11-------------------|
D-----------------------------------12-----------------------------------------------------|
A------------------------------------------------------------------------------------------|
D------------------------------------------------------------------------------------------|

E------------------------------------------------------------------------------------------|
B------------------------------------------------------------------------------------------|
G--12^-12-11-12-11--12^-12-11-12-11-----12^-12-11-12-11--12^-12-11-12^---------------------|
D-----------------------------------12-----------------------------------------------------|
A------------------------------------------------------------------------------------------|
D------------------------------------------------------------------------------------------|

E------------------------------------------------------------------------------------------|
B------------------------------------------------------------------------------------------|
G------------12-11--12^-12-11-12-11-----12^-12-11-12-11--12^-12-11-12-11-------------------|
D-----------------------------------12-----------------------------------------------------|
A------------------------------------------------------------------------------------------|
D------------------------------------------------------------------------------------------|

E------------------------------------------------------------------------------------------|
B------------------------------------------------------------------------------------------|
G--12^-12-11-12-11--12^-12-11-12-11-----12^-12-11-12-11--12^-12-11-12^---------------------|
D-----------------------------------12-----------------------------------------------------|
A------------------------------------------------------------------------------------------|
D------------------------------------------------------------------------------------------|
last note of the lead chorus is a full bend

[Outro] 2x
E----------------------------------------------------------------|
B----------------------------------------------------------------|
G----------------------------------------------------------------|
D----------------------------------------------------------------|
A----------------------------------------------------------------|
D--0-0---0----0---0-0---0-0----3----3--3---3---5--5----5--5---5--|



************************************

| ~  Vibrato
 
| h  Hammer-on
 

************************************                
 Buy song Backstage (Tab) on iTunes store

Support artists with purchashing the original song!

TikTok top songs playlist 2022



0 Comments
Please sign-in to comment.

All Artists: # A B C D E F G H I J K L M N O P Q R S T U V W X Y Z