Where Whiskey Goes

by Pryor & Lee

335

INTRO:
 
E -------------|-------------|-------|
B -------------|-------------|-------|
G -------------|-------------|-------|
D -------------|---------3-0-|-------|
A ---------3-5-|-------------|-------|
D -3b-3b-0-----|-3b-3b-0-----|-3b-3b-|
 
 
VERSE:
 D
Just hanging out, minding my own business
       D
Got a bucket of beer with four or five in it
        A
Turned upside down and happy hour should have ended
        G
Then a shot shows up with some trouble poured in it
 
     D
One sip, it hits me, she’s gone
       D
Start thinkin’ I can fix everything I did wrong
        A                                G
I know where it gets me, whiskey always rolls
 
 
CHORUS:
         D
It goes down, down, down, down warm and slow
 D
Straight to my head before I know it
          A
Then I’m bang, bang, bangin’ on her front door
   G
I had a second chance, but I need one more
 
D
On comes the porch light, out comes the baby
   D
I want you bad, take me back, miss you like crazy
        A
Down a dead-end road with a big, fat “no”
 G                    D
That’s where whiskey goes
 
E -------|---------------|
B -------|---------------|
G -------|---------------|
D -------|--------3------|
A ---3-5-|----------5~~~~|
D -0-----|-3b3b-0--------|
 
 
VERSE:
    D
It comes from a still in Lynchburg, Tennessee
 D
Never been there, so how the hell does it find me
    A
In every single bar, on every Friday night?
   G
I try to turn it down, but every damn time
 
 
CHORUS:
         D
It goes down, down, down, down warm and slow
 D
Straight to my head before I know it
          A
Then I’m bang, bang, bangin’ on her front door
   G
I had a second chance, but I need one more
 
D
On comes the porch light, out comes the baby
   D
I want you bad, take me back, miss you like crazy
        A
Down a dead-end road with a big, fat “no”
 G                    D   D
That’s where whiskey goes
 
                            A     G
Yeah, that’s where whiskey goooo-oes
 
 
CHORUS:
         D
It goes down, down, down, down warm and slow
 D
Straight to my head before I know it
          A
Then I’m bang, bang, bangin’ on her front door
   G
I had a second chance, but I need one more
 
D
On comes the porch light, out comes the baby
   D
I want you bad, take me back, miss you like crazy
        A
Down a dead-end road with a big, fat “no”
 G                    D
That’s where whiskey goes
 
E -------|------------|------------|--------|
B -------|------------|------------|--------|
G -------|------------|------------|--------|
D -------|--------3-0-|------------|--------|
A ---3-5-|------------|--------3-5-|--------|
D -0-----|-3b3b-0-----|-3b3b-0-----|-3b3b-0-|
                  Yeah, that’s where whiskey goes, yeah
Visit www.musixindo.com
to see the lyrics Where Whiskey Goes
Lyrics not available
Tab not available
 Buy song Where Whiskey Goes on iTunes store

Support artists with purchashing the original song!

share Share
TikTok top songs playlist 2022



0 Comments
Please sign-in to comment.

All Artists: # A B C D E F G H I J K L M N O P Q R S T U V W X Y Z