Stages

by 40 Watt Sun

331

Capo: 3rd fret

[Verse Riff]
  Em                               D*
e|------------0-----------0---0-0-|0-------------------------------|
B|0-----------0-----------0---0-0-|3---------------3---0-----------|
G|0-----------0-----------0---0-0-|0-----------0---0-----------0---|
D|5-----------5-----------5---5-0-|4---------------4---------------|
A|7-----------7-----------7-------|5---------------5---------------|
E|0-----------0-----------0-------|5---------------5---------------|
  1 e & a 2 e & a 3 e & a 4 e & a  1 e & a 2 e & a 3 e & a 4 e & a
 
  Am7                              Am7
e|0-----------0-------------------|0-------------------------------|
B|1-----------1-------------------|1---------------1---0-----------|
G|0-----------0---------------0---|0-----------0---0-----------0---|
D|2-----------2-----------2-------|2---------------2---------------|
A|0-----------0-------------------|0---------------0---------------|
E|--------------------------------|--------------------------------|
  1 e & a 2 e & a 3 e & a 4 e & a  1 e & a 2 e & a 3 e & a 4 e & a
 
[Turnaround Riff]
  C                                D
e|0-----------0-------------------|2-------------------------------|
B|1-----------1-------------------|3-----------3-----------3-------|
G|0-----------0-------------------|2-----------2-----------2-------|
D|2-----------2-------------------|0-----------0-----------0-------|
A|3-----------3-------------------|0-----------0-----------0-------|
E|3-----------3-------------------|2-----------2-----------2-------|
  1 e & a 2 e & a 3 e & a 4 e & a  1 e & a 2 e & a 3 e & a 4 e & a
 
  Am7                              Am7
e|0-----------0-------------------|0-------------------------------|
B|1-----------1-------------------|1---------------1---0-----------|
G|0-----------0---------------0---|0-----------0---0-----------0---|
D|2-----------2-----------2-------|2---------------2---------------| x1
A|0-----------0-------------------|0---------------0---------------|
E|--------------------------------|--------------------------------|
  1 e & a 2 e & a 3 e & a 4 e & a  1 e & a 2 e & a 3 e & a 4 e & a
 
[Chorus Riff]
Notes in () should be barely played if at all
  G                                D
e|3-----------3-------------------|2-----------2-------------------|
B|0-----------0----------(0---0-0)|3-----------3----------(3---3-3)|
G|0-----------0----------(0---0-0)|2-----------2----------(2---2-2)|
D|0-----------0----------(0---0-0)|0-----------0----------(0---0-0)|
A|2-----------2-------------------|0-----------0-------------------|
E|3-----------3-------------------|2-----------2-------------------|
  1 e & a 2 e & a 3 e & a 4 e & a  1 e & a 2 e & a 3 e & a 4 e & a
 
  CMaj7       C                    CMaj7       C
e|0-----------0-------------------|0-----------0-------------------|
B|0-----------1----------(1---1-1)|0-----------1-------0-----------|
G|0-----------0----------(0---0-0)|0-----------0-----------0-------|
D|2-----------2----------(2---2-2)|2-----------2---------------2---| x2
A|3-----------3-------------------|3-----------3-------------------|
E|3-----------3-------------------|3-----------3-------------------|
  1 e & a 2 e & a 3 e & a 4 e & a  1 e & a 2 e & a 3 e & a 4 e & a
 
  G                                D
e|3-----------3-------------------|2-----------2-------------------|
B|0-----------0----------(0---0-0)|3-----------3----------(3---3-3)|
G|0-----------0----------(0---0-0)|2-----------2----------(2---2-2)|
D|0-----------0----------(0---0-0)|0-----------0----------(0---0-0)|
A|2-----------2-------------------|0-----------0-------------------|
E|3-----------3-------------------|2-----------2-------------------|
  1 e & a 2 e & a 3 e & a 4 e & a  1 e & a 2 e & a 3 e & a 4 e & a
 
  Am7                              Am7
e|0-----------0-------------------|0-----------0-------------------|
B|1-----------1-------------------|1-----------1-------0-----------|
G|0-----------0---------------0---|0-----------0---------------0---|
D|2-----------2-----------2-------|2-----------2-------------------| x1
A|0-----------0-------------------|0-----------0-------------------|
E|--------------------------------|--------------------------------|
  1 e & a 2 e & a 3 e & a 4 e & a  1 e & a 2 e & a 3 e & a 4 e & a
 
[Turnaround Altered Riff]
  C                                D
e|0-----------0-------------------|2-----------2-----------2-------|
B|1-----------1-------------------|3-----------3-----------3-------|
G|0-----------0-------------------|2-----------2-----------2-------|
D|2-----------2-------------------|0-----------0-----------0-------|
A|3-----------3-------------------|0-----------0-----------0-------|
E|3-----------3-------------------|2-----------2-----------2-------|
  1 e & a 2 e & a 3 e & a 4 e & a  1 e & a 2 e & a 3 e & a 4 e & a
 
  Am7                              Em*                              C
e|0-----------0-------------------|0-----------0-------------------|0-----------0-----------0---0---|
B|1-----------1-----------1-------|0-----------0-----------0-------|1-----------1-----------1---1---|
G|0-----------0---------------0---|0-----------0---------------0---|0-----------0-----------0---0---|
D|2-----------2-------------------|2-----------2-------------------|2-----------2-----------2---2---| x1
A|0-----------0-------------------|2-----------2-------------------|3-----------3-----------3---3---|
E|--------------------------------|0-----------0-------------------|3-----------3-----------3---3---|
  1 e & a 2 e & a 3 e & a 4 e & a  1 e & a 2 e & a 3 e & a 4 e & a  1 e & a 2 e & a 3 e & a 4 e & a
 
[Bridge]
Build a bit more strumming as the end approaches
  Emaj7                            CMaj7*
e|0-----------0-----------0-------|0-----------0-----------0-------|
B|0-----------0-----------0-------|0-----------0-----------0-------|
G|8-----------8-----------8-------|0-----------0-----------0-------|
D|6-----------6-----------6-------|9-----------9-----------9-------| x4 (x1 during vocals)
A|7-----------7-----------7-------|7-----------7-----------7-------|
E|0-----------0-----------0-------|8-----------8-----------8-------|
  1 e & a 2 e & a 3 e & a 4 e & a  1 e & a 2 e & a 3 e & a 4 e & a
 
  D*          D**                  CMaj7
e|0-----------0-----------0-------|0-----------0-----------0-------|
B|3-----------0-----------0-------|0-----------0-----------0-------|
G|0-----------0-----------0-------|0-----------0-----------0-------|
D|4-----------4-----------4-------|2-----------2-----------2-------| x1
A|5-----------5-----------5-------|3-----------3-----------3-------|
E|5-----------5-----------5-------|3-----------3-----------3-------|
  1 e & a 2 e & a 3 e & a 4 e & a  1 e & a 2 e & a 3 e & a 4 e & a
 
[Verse]
Em D* Am7 x3
 
Em           D*   Am7
   If I was only wise enough
Em         D*     Am7
   To know everything
Em            D*   Am7
   sure and true about myself
Em            D*     Am7
   You would not be here
Em               D*         Am7
   What have I brought you to, my love
Em                D*       Am7
   that you have followed me?
Em        D*      Am7
   It is all my heart is worth
 
[Turnaround]
    C                  D     Am7
And more than I would ask of you
 
[Verse]
Em D* Am7 x2
 
Em        D*    Am7
   But I was afraid of
Em       D*          Am7
   of a world where you
Em           D*       Am7
   did not exist, an empty space
 
[Turnaround]
C             D         Am7
   I was not walking through
 
[Verse]
Em                D*      Am7
   And you were there between myself
Em          D*        Am7
   And the darkened wings
Em               D*     Am7
   You took the pieces of our lives
 
[Turnaround]
C               D        Am7
   And made us something new
 
[Chorus]
    G         D      Cmaj7  C Cmaj7 C
Now you don't see me trying
    G         D      Cmaj7  C Cmaj7 C
Now you don't see me trying
    G         D      Am7
Now you don't see me trying
 
[Turnaround]
C                 D        Am7
   don't see me trying, do you?
 
[Verse]
Em D* Am7 x2
 
Em            D*         Am7
   So if you want to surrender
Em      D*       Am7
   Then I will too
Em              D*      Am7
   If you want me to carry on
 
[Turnaround]
C       D      Am7
   then I will do
 
[Verse]
Em          D*           Am7
   And the night falls around us
Em           D*   Am7
   pressing us apart
Em           D*        Am7
   with the weight of silence
 
[Turnaround Altered]
C              D       Am7   Em*
   Such is my love for you
    C
For you
 
[Bridge]
Emaj7 Cmaj7* Emaj7 Cmaj7* Emaj7 Cmaj7* D* D** Cmaj7 x3
 
Emaj7                   Cmaj7*           D*     D**       Cmaj7
      The heart of the matter, that the both of us can't hide
Emaj7             Cmaj7*           D*     D**     Cmaj7
      beats on against us with the rhythm of the tide
Emaj7                  Cmaj7*   D*   D**        Cmaj7
      And through this apathy, wider than the sky
Emaj7             Cmaj7*          D*      D**    Cmaj7
      I'm feeling everything like nothing in my life
Emaj7             Cmaj7*          D*      D**    Cmaj7
      I'm feeling everything like nothing in my life
 
Emaj7 Cmaj7* Emaj7 Cmaj7* Emaj7 Cmaj7* D* D** Cmaj7 x2
 
Emaj7 Cmaj7* Emaj7 Cmaj7* Emaj7 Cmaj7* D* D** Cmaj7 x2 with oohs
 
Emaj7 Cmaj7* Emaj7 Cmaj7* Emaj7 Cmaj7* D* D** Cmaj7 x4
Visit www.musixindo.com
to see the lyrics Stages
                  if i was only wise enough
to know everything sure and true about myself,
you would not be here.

what have i brought you to, my love, that you have followed me?
it is all my heart is worth
and more than i would ask of you.

but i was afraid of a world where you did not exist;
an empty sp-ce i was not walking through.
and you were there between myself
and the darkened wings;
you took the pieces of our lives
and made us something new

but now you don’t see me trying, do you?

so if you want to surrender, then i will too;
or if you want me to carry on, then i will do.
and the night falls around us,
pressing us apart
with the weight of silence –

such is my love for you.

the heart of the matter, that the both of us can’t hide,
beats on against us
with the rhythm of the tide;
and through this apathy,
wider than the sky,
i’m feeling everything like nothing in my life.
i’m feeling everything
like nothing
in my life.                
Tab not available
 Buy song Stages on iTunes store

Support artists with purchashing the original song!

share Share
TikTok top songs playlist 2022



0 Comments
Please sign-in to comment.

All Artists: # A B C D E F G H I J K L M N O P Q R S T U V W X Y Z