Potentie (ukulele)

by Stefan & Sean feat Bram Krikke

14

[Intro]
 
  C
Vanavond ga ik scoren
C
Het beest in mij gaat los
C
Strakke kleren lekker luchtje
C
Tanden goed geflost
C
M'n piem is goed gewassen
C
Het smegma is eraf
C
En ik weet het al weer zeker
C
Er word iemand volgeblaft
 
 
    C           G           Am         F
A|--3-3-2-3-----2-2-0-2-5---3-3-2-3----5-5-3-7-2-----|
E|-----------3-----------------------3---------------|    (2X)
C|---------------------------------------------------|
G|---------------------------------------------------|
 
 
[Verse 1]
 
C
Dus ik ga de stad in
       G
Zelfverzekerd, goed gemutst
Am
Zie een lekker moppie
   F
En vraag haar om een kus
          C
Blijkt ze zeventien te zijn
  G
Helaas heeft dat geen zin
     Am
Maar ik had het al gezien
                 C
D'r zit potentie in
 
 
 
[Verse 2]
 
C                           G
Het is rond middernachte en ik ben goed gezind
Am                             F
Nog een jaartje wachten en dan ram ik hem erin
    C                       G
Dus wanneer ben je jarig en duurt dat dan nog lang
            Am                            F      C
Bel me even op dan maak je kennis met m'n slang
 
 
[Chorus]
 
C             G
Dan blijkt ze zeventien
Am          F
Dat heeft helaas geen zin
     C      G          Am
Maar had allang gezien
            F
Daar zit potentie in
 
    C           G           Am         F
A|--3-3-2-3-----2-2-0-2-5---3-3-2-3----5-5-3-7-2-----|
E|-----------3-----------------------3---------------|    (2X)
C|---------------------------------------------------|
G|---------------------------------------------------|
 
                  A
Daar zit potentie in
 
 
[Verse 3]
 
C                       G
Uno, dos, tres, quatro, vijf, zes, zeven
Am        A
Waar zijn alle chicks gebleven
C
Acht, negen, tien
  G
Potentie is gezien
Am
Elf, twaalf
                  C
Er rijmt niks op twaalf
 
Dertien, veertien
G
In de volle bloei
Am
Vijftien, zestien
                  A
Nog even geen geknoei
C
Toen ik je zag lopen
G
Dacht ik net te min
   Am
We wachten nog een jaar
                       F        C
Want daar zit potentie in
 
 
 
[Chorus]
 
              G
Dan blijkt ze zeventien
Am           F
Dat heeft helaas geen zin
C           G
Maar had allang gezien
Am          F
Daar zit potentie in
 
    C     G
A|--3-3-2-3-----2-2-0-2-5---3-3-2-3----5-5-3-7-2-----|
E|-----------3-----------------------3---------------|
C|---------------------------------------------------|
G|---------------------------------------------------|
 
                  C
Daar zit potentie in
 
 
    C           G           Am         F
A|--3-3-2-3-----2-2-0-2-5---3-3-2-3----5-5-3-7-2-----|
E|-----------3-----------------------3---------------|    (2X)
C|---------------------------------------------------|
G|---------------------------------------------------|
 
 
Daar zit potentie in
 
    C           G           Am         F
A|--3-3-2-3-----2-2-0-2-5---3-3-2-3----5-5-3-7-2-----|
E|-----------3-----------------------3---------------|    (2X)
C|---------------------------------------------------|
G|---------------------------------------------------|
 
 
Oeh yeah
Visit www.musixindo.com
to see the lyrics Potentie (ukulele)
                  [Intro: Stefan de Vries & Bram Krikke]
Vanavond ga ik scoren
Het beest in mij gaat los
Strakke kleren lekker luchtje
Tanden goed geflost
M'n piem is goed gewassen
Het smegma is eraf
En ik weet het al weer zeker
Er word iemand volgeblaft
Iemand volgeblaft
Iemand volgeblaft

[Verse 1: Bram Krikke]
Dus ik ga de stad in
Zelfverzekerd, goed gemutst
Zie een lekker moppie
En vraag haar om een kus
Blijkt ze zeventien te zijn
Helaas heeft dat geen zin
Maar ik had het al gezien
D'r zit potentie in

[Verse 2: Stefan de Vries]
Het is rond middernachte en ik ben goed gezind
Nog een jaartje wachten en dan ram ik hem erin
Dus wanneer ben je jarig en duurt dat dan nog lang
Bel me even op dan maak je kennis met m'n slang

[Chorus]
Dan blijkt ze zeventien
Dat heeft helaas geen zin
Maar had allang gezien
Daar zit potentie in
Daar zit potentie in

[Verse 3: Stefan de Vries & Bram Krikke]
Uno, dos, tres, quatro, vijf, zes, zeven
Waar zijn alle chicks gebleven
Acht, negen, tien
Potentie is gezien
Elf, twaalf
Er rijmt niks op twaalf
Dertien, veertien
In de volle bloei
Vijftien, zestien
Nog even geen geknoei
Toen ik je zag lopen
Dacht ik net te min
We wachten nog een jaar
Want daar zit potentie in

[Chorus]
Dan blijkt ze zeventien
Dat heeft helaas geen zin
Maar had allang gezien
Daar zit potentie in
Daar zit potentie in
Daar zit potentie in
Oeh yeah                
Tab not available
 Buy song Potentie (ukulele) on iTunes store

Support artists with purchashing the original song!


share Share



0 Comments
Please sign-in to comment.

All Artists: # A B C D E F G H I J K L M N O P Q R S T U V W X Y Z