Love Is Stronger Than Pride

by Sade

291

Intro:
  Amaj9   E7sus4   Fmaj7/G
e|--4--------0--------0--|
B|--2--------0--------1--|
G|--4--------2--------2--|
D|--2--------0--------3--|
A|--0--------2--------0--|
E|--------------------3--|

 
[Chorus]
  Amaj9                  E7sus4
I won't pretend that I intend to stop living
  Amaj9             E7sus4
I won't pretend I'm good at forgiving
            Amaj9                            E7sus4
But I can't hate you, although I have tried, ah
        Amaj9                           E7sus4
I still really really love you, love is stronger than pride
        Amaj9                   E7sus4
I still really really love you, mmmm
 
 
[Chorus]
  Amaj9                  E7sus4
I won't pretend that I intend to stop living
  Amaj9             E7sus4
I won't pretend I'm good at forgiving
            Amaj9                            E7sus4
But I can't hate you, although I have tried, mmmm ah ah
        Amaj9                           E7sus4
I still really really love you, love is stronger than pride
        Amaj9                   E7sus4
I still really really love you, mmmm
 
 
[Bridge]
Fmaj7/G                                    Amaj9
Sitting here wasting my time would be like waiting for the sun to rise
     Fmaj7/G                              Amaj9
It's all too clear, yeah, things come and go
Fmaj7/G                                    Amaj9
Sitting here waiting for you would be like waiting for winter
              Fmaj7/G                  Amaj9
It's gonna be cold there may even be snow
 
[Interlude]
  Fmaj7/G                                  Amaj9
e|----------------------------------------------|
B|-------------12-----13-12--15-13--17--17b-----|
G|----------12----14----------------------------|
D|-------14-------------------------------------|  x2
A|-14-15----------------------------------------|
E|----------------------------------------------|
 
[Chorus]
        Fmaj7/G                                       Amaj9
I still really really love you, love is stronger than pride
        Fmaj7/G                              Amaj9
I still really really love you, love is stronger
        Fmaj7/G          N.C.                  Amaj9
I still really love you, love is stronger than pride
 
 
[Outro]
  Fmaj7/G                                  Amaj9
e|----------------------------------------------|
B|-----------------------------------12---------|
G|--------------------------------12----14------|
D|-----------------------------14---------------|
A|-----------------------14-15------------------|
E|----------------------------------------------|
 
 
  Fmaj7/G                                  Amaj9
e|----------------------------------------------|
B|-------------12-----13-12--15-13--17--17b-----|
G|----------12----14----------------------------|
D|-------14-------------------------------------|
A|-14-15----------------------------------------|
E|----------------------------------------------|
 
 
Fmaj7/G    Amaj9
Fmaj7/G    Amaj9
Visit www.musixindo.com
to see the lyrics Love Is Stronger Than Pride
                  I won't pretend that I intend to stop living
I won't pretend I'm good at forgiving
But I can't hate you
Although I have tried
Mmmmm 
I still really really love you
Love is stronger than pride
I still really really love you
Mmmmm 

I won't pretend that I intend to stop living
I won't pretend I'm good at forgiving
But I can't hate you
Although I have tried
Mmmmm 

I still really really love you
Love is stronger than pride
I still really really love you
Mm mm mm mm mm 

Sitting here wasting my time
Would be like
Waiting for the sun to rise
It's all too clear things come and go
Sitting here waiting for you
Would be like waiting for winter
It's gonna be cold
There may even
Be snow 

I still really really love you
Love is stronger than pride
I still really really love you
Love is stronger
I still really really love you
Love is stronger than pride                
Tab not available
 Buy song Love Is Stronger Than Pride on iTunes store

Support artists with purchashing the original song!

share Share
TikTok top songs playlist 2022



0 Comments
Please sign-in to comment.

All Artists: # A B C D E F G H I J K L M N O P Q R S T U V W X Y Z