Koala Before The Storm

by Johnossi

172

[Riff]
    C5                              A5
e|-----------------------------------------------------------------|
B|-----------------------------------------------------------------|
G|-----------------------------------------------------------------|
D|-----------------------------------------------------------------|
A|--3-5-5~--------3-3-5-5~-----------------------------------------|
E|--------------------------------3-3-5-5~----------3-5-5~---------|
 
    C5                              A5
e|-----------------------------------------------------------------|
B|-----------------------------------------------------------------|
G|-----------------------------------------------------------------|
D|----------------------------------2---------------2--------------|
A|--3-5-5~--------3-3-5-5~--------3--------------------------------|
E|------------------------------------3-5~------------3-5~---------|
 
[Intro Riff]
C5 A5 C5 A5
 
[Verse 1]
A5            B5     C5              F5           A5
 Wasted hours make-believe, it could be the one I needed
A5            B5    C5             F5             A5
 Oh so stupid now I see, there’s a ghost up in my head
 
     A5    G5    F5     A5
That feeds on my needs again
         A5  G5      F5       C5
One more day to come down and then
 
[Chorus]
G5         F5
I could be sane
         G5           C5
And you, you could be warm
G5        F5                 G5     C5
We can be everything we ever were before
G5         F5
I could be sane
         G5         C5
And you, loving and warm
G5        F5                 G5     C
We can be everything we ever were beforе
  Dm F       C5    F5
Befo~ore the storm
 
[Riff]
C5 A5 C5 A5
 
[Verse 2]
A5                 B5   C5           F5                 A5
 Got my lеsson but no degree, saying don’t you want me, baby
A5           B5    C5               F5            A5
 So pathetic on my knees, still I’m far away from home
 
     A5    G5    F5     A5
That feeds on my needs again
         A5  G5      F5       C5
One more day to come down and then
 
[Chorus]
G5         F5
I could be sane
         G5           C5
And you, you could be warm
G5        F5                 G5     C5
We can be everything we ever were before
G5         F5
I could be sane
         G5         C5
And you, loving and warm
G5        F5                 G5     C
We can be everything we ever were beforе
  Dm F       C5    F5
Befo~ore the storm
           D5
You let me go
           F5
You let me go
           C5
Before the storm
           D5
You let me go
           F5
You let me go
           C5
Before the storm
 
[Outro Riff]
C5 A5 C5 A5
C5 A5 C5 A5
Visit www.musixindo.com
to see the lyrics Koala Before The Storm
                  [Verse 1]
Wasted hours make-believe, it could be the one I needed
Oh so stupid now I see, there’s a ghost up in my head

That feeds on my needs again
One more day to come down and then

[Chorus]
I could be sane
And you, you could be warm
We can be everything we ever were before

I could be sane
And you, loving and warm
We can be everything we ever were

Beforе before the storm

[Verse 2]
Got my lеsson but no degree, saying don’t you want me, baby
So pathetic on my knees, still I’m far away from home

To feed all my needs again
One more day to come down and then

[Chorus]
I could be sane
And you, you could be warm
We can be everything we ever were before
 

I could be sane
And you, loving and warm
We can be everything we ever were

Before before the storm

You let me go
You let me go
Before the storm

You let me go
You let me go

Before the storm                
Tab not available
 Buy song Koala Before The Storm on iTunes store

Support artists with purchashing the original song!


share Share
Fifa World Cup Qatar 2022 Soundtrack



0 Comments
Please sign-in to comment.

All Artists: # A B C D E F G H I J K L M N O P Q R S T U V W X Y Z