Im In Love With You

by Samantha Fish

166

[Intro]
 
e|-----------------------------------|
B|-----------------------------------|
G|--------------2--------------------|
D|-----0---2/4----2-0-----0-2-0--0---|
A|-(h)0/1----------------0/1-------2-|
E|-----------------------------------|
 
[Verse 1]
Bm
I'm in love
               D
Been in love a long time
          Em
With you, baby
         D
With you now
Bm                 Em
Nobody, nobody but you
     D
On my mind
             Bm
Give me your hand
             Em
Let me make love to you
            D
Let me make love to you
D
Let me make love to you
Bm          Em
Yeah, yeah, oh, oh
 
Bm  Em  Bm  Em
 
Bm              Em
Baby, be true to me
Bm
If you'll be true to me
Em
I'll be true to you
D
I'll be true to you
Bm              Em
Yeah, yeah, yeah Oh Oh
 
[Outtro]
 
D
I'll be true to you
Em
I'll be true to you
D
Let me make love to you
Em
I'll be true to you
D
Let me make love to you....
 
E|-----------------------------------|
B|-----------------------------------|
G|--------------2--------------------|
D|-----0---2/4----2-0-----0-2-0--0---|
A|-(h)0/1----------------0/1-------2-|
E|-----------------------------------|
************************************
 
| /  Slide up
Visit www.musixindo.com
to see the lyrics Im In Love With You
                  I'm in love
Been in love a long time
With you, baby
With you now
Nobody (nobody)
Nobody but you
On my mind

Give me your hand
Let me make love to you
Let me make love to you
Yeah, yeah, oh, oh, oh
Let me make love to you

Baby, be true to me
If you'll be true to me
I'll be true to you
I'll be true to you
Ey-e-yeah, yeah, yeah, yeah
I'll be true to you
I'll be true to you

Let me make love to you
'Cause I'll be true to you
Let me make love to you
I'll be true to you
Let me make love to you
'Cause I'll be true to you
I'll be true to you                
Tab not available
 Buy song Im In Love With You on iTunes store

Support artists with purchashing the original song!


share Share
Tiktok Top Songs



0 Comments
Please sign-in to comment.

All Artists: # A B C D E F G H I J K L M N O P Q R S T U V W X Y Z