Hijrah Ke London

by The Changcuters

277

INTRO:
D5
D C# B D C# B A5  

A5            C#5 
Kau berkelana  
B5            D5          A5 
Ke negara sepak bola 
            C#5 
Bukan Italia 
B5            D5          A5 
Bukan juga Argentina 
     C#5        B5     D C# B D C# B A5 
Ohoho... Ohoho... 

A5           C#5 
Ditinggal cinta 
B5           D5         A5   
Buat aku tak berdaya 
                C#5 
Gundah gulana 
B5           D5         A5 
Ingin aku menyusulnya 
   C#5          B5    D C# B D C# B 
Ohoho... Ohoho...(2X) 

BRIDGE : 
C#5    B5 
  Dia jauh 
C#5    B5 
  Dia jauh 
C#5    B5 
  Aku rindu 
C#5   (E5) 
  Aku rindu 


REFF : 
A5       C#5         B5 
London, London... 
   D5             A5 
Ingin ku kesana 
        C#5       B5 
London, London... 
D5          A5                
Pergi menyusulnya… 

INTERLUDE : A5 C#5 B5 D5 
(4X) 

BRIDGE, REFF, INTERLUDE 

CODA : 
D D D B E D A5
Kunjungi www.musixindo.com
untuk melihat lirik Hijrah Ke London
                  Kau berkelana
Ke negara sepak bola
Bukan Italia
Bukan juga Argentina

Ohoho… Ohoho…

Ditinggal cinta
Buat aku tak berdaya
Gundah gulana
Ingin aku menyusulnya

Ohoho… Ohoho…
Ohoho… Ohoho…

Dia jauh
Dia jauh
Aku rindu
Aku rindu

*London, London…
Ingin ku kesana
London, London…
Pergi menyusulnya
*                
                  Intro 
e|-------------------------------------------|  
B|------------------------------------------|  
G|--7---6---4---7---6---4-------------------|  
D|--7---6---4---7---6---4--7~--------------|  
A|--5---4---2---5---4---2--7~--------------|  
E|-------------------------5~--------------| 


Interlude  1 
e|----------------------------------------------------------------------------------|  
B|----------------------------------------------------------------------------------|  
G|--5/7-7-5-7-5-7—--7/8-8-7-8-7-8—--8/10-10-8-10-8-10—--10/11-11-11-11-11—--10-8----|  
D|----------------------------------------------------------------------------------|  
A|----------------------------------------------------------------------------------|  
E|----------------------------------------------------------------------------------|  

e|----------------------------------------------------------------------------------|  
B|----------------------------------------------------------------------------------|  
G|--5/7-7-5-7-5-7—--7/8-8-7-8-7-8—--8/10-10-8-10-8-10—--10/11-11-11-11-11—--10-8----|  
D|----------------------------------------------------------------------------------|  
A|----------------------------------------------------------------------------------|  
E|----------------------------------------------------------------------------------| 

E|--------------11-------------------------------------------------------------|  
B|--11/12-12--12--12--11-11-11-11--11-12-14-12-11-----11-12--12-12-14-12-11----|  
G|-------------------------------------------------13~-------------------------|  
D|-----------------------------------------------------------------------------|  
A|-----------------------------------------------------------------------------|  
E|-----------------------------------------------------------------------------|  

E|--------------11-----------------------------------------------------------------|  
B|--11/12-12--12--12--11-11-11-11--11-12-14-12-11-----11-12--12-12-14-12-14b18r14--|  
G|-------------------------------------------------13~-----------------------------|  
D|---------------------------------------------------------------------------------|  
A|---------------------------------------------------------------------------------|  
E|---------------------------------------------------------------------------------|  


Interlude 2 
e|---------------------------------------------------------------------------------|  
B|--9/10-10-9-10-9-10-10/12-12-10-12-10-12-12/14-14-12-14-12-14-15-15-15-15-14-12--|  
G|---------------------------------------------------------------------------------|  
D|---------------------------------------------------------------------------------|  
A|---------------------------------------------------------------------------------|  
E|---------------------------------------------------------------------------------| 

e|---------------------------------------------------------------------------------|  
B|--9/10-10-9-10-9-10-10/12-12-10-12-10-12-12/14-14-12-14-12-14-15-15-15-15-14-12--|  
G|---------------------------------------------------------------------------------|  
D|---------------------------------------------------------------------------------|  
A|---------------------------------------------------------------------------------|  
E|---------------------------------------------------------------------------------| 

e|---------------------------------------------------------------------------------|  
B|---------10----10-----10-12b14r12-10-12-12/14-12-10-12-10----------------10--10--|  
G|-9h11-11---9h11---9h11------------------------------------11-9------9h11---11----|  
D|----------------------------------------------------------------9h11-------------|  
A|---------------------------------------------------------------------------------|  
E|---------------------------------------------------------------------------------|  

e|-----------------------------------------------------------------------------------|  
B|-----10-----10-----10-12b14r12-10-12-12/14-12-10-12-10-12-12/14-12-10-12------10---|  
G|-9h11---9h11---9h11------------------------------------------------------11-9------|  
D|-----------------------------------------------------------------------------------|  
A|-----------------------------------------------------------------------------------|  
E|-----------------------------------------------------------------------------------| 

/: slide up  
b: bend  
h: hammer on  
r: release bend   
~: vibrate                 
 Beli lagu Hijrah Ke London di iTunes store

Support artist dengan membeli lagu asli


share Bagikan



0 Komentar
Masuk untuk berkomentar.

Semua Artist: 0-9 A B C D E F G H I J K L M N O P Q R S T U V W X Y Z