Good Rockin' Tonight (Live)

by Bruce Springsteen

187

[Intro]
One, two, three, four
B7
 
[Verse 1]
                     E7
Well have you heard the news, there's good rockin' tonight
               A7                                      E7
Well have you heard the news, there's good rockin' tonight
I'm gonna hold my baby as tight as I can
Tonight I'm gonna be a mighty mighty man
          A7               B7                     E7
Have you heard the news, there's good rockin' tonight
 
[Verse 2]
      E7
Well meet me my baby out behind the barn
                      A7
Well I swear, I wanna do you no harm
     E7
Tonight I'm gonna put on my rockin' shoes
      N.C.
Tonight I'm gonna rock away all my blues
    A7                B7                     E7
You heard the news, there's good rockin' tonight
 
[Bridge]
E7
We're gonna rock
We're gonna rock
             A7
We're gonna rock
             E7
We're gonna rock
             B7
We're gonna rock
A7              E7
All our cares away
Watch out now!
 
[Guitar Solo]
   E7
e|------12--------|--12----------12-----|--12-------12-|------------------|
B|---------12--14-|----12--14-------12--|-----12-14----|-15--14--12-------|
G|----------------|---------------------|--------------|------------------|
D|-/14------------|---------------------|--------------|------------------|
A|----------------|---------------------|--------------|------------------|
E|----------------|---------------------|--------------|------------------|
 
    A7                       E7
e|------5---5-|---5-------|------12--------12-|-------------------------|
B|--------7---|-8---7-5---|--------12---14----|-15-14-12----------------|
G|------------|-----------|-------------------|-------------------------|
D|--/7--------|-----------|-/14---------------|-------------------------|
A|------------|-----------|-------------------|-------------------------|
E|------------|-----------|-------------------|-------------------------|
 
   B7              A7                 E7
e|------7-------|--------5---------|-----12--------12-|----------------|
B|--------7-9---|-----------7-5----|--------12--14----|-15-12----------|
G|--------------|------------------|------------------|----------------|
D|-/9-----------|-9\7--------------|--/14-------------|----------------|
A|--------------|------------------|------------------|----------------|
E|--------------|------------------|------------------|----------------|
 
E7  A7  E7  B7  A7  E7  B7 
 
[Verse 3]
                E7
Have you heard the news, there's good rockin' tonight
               A7                                      E7
Well have you heard the news, there's good rockin' tonight
I'm gonna hold my baby as tight as I can
Tonight I'm gonna be a mighty mighty man
           A7               B7                    E7
Have you heard the news, there's good rockin' tonight
Let's go!
 
[Outro]
E7
Have you heard the news, there's good rockin' tonight, hey!
          A7                                      E7
Have you heard the news, there's good rockin' tonight
           B7              A7                     E7
Have you heard the news, there's good rockin' tonight
Once more!
E7
Have you heard the news, everybody's rockin' tonight
                A7                                    E7
Well have you heard the news, everybody's rockin' tonight
               B7              A7           B7         E7 
Well have you heard the news, there's good rockin' tonight
 
[Outro Guitar Lick]
 
e|-----12---10----------|------------------------------------|
B|----------------------|----9-------------------------------|
G|-9------9------9---11b|13-----11b13-11b13r11---9-----------|
D|----------------------|---------------------------11---9---|
A|----------------------|------------------------------------|
E|----------------------|------------------------------------|
 
                                                 E7
e|------0------------0---------|--0--------------0--------------|
B|------0------------0---------|--0--------------0--------------|
G|-2b3-----(2)3pbr2------0h1---|--1--------------1--------------|
D|-----------------------------|-----------------0--------------|
A|-----------------------------|-----------------2--------------|
E|-----------------------------|-----------------0--------------|
Visit www.musixindo.com
to see the lyrics Good Rockin' Tonight (Live)
                  [Spoken intro:] Alright (chuckles). Gimme a little light. How you doing out there tonight? You ready tonight... No fooling around tonight. It's just me and you tonight. Here we go!

One, two, three, four

Well have you heard the news, there's good rockin' tonight
Well have you heard the news, there's good rockin' tonight
I'm gonna hold my baby as tight as I can
Tonight I'm gonna be a mighty (Clarence: mighty mighty man)
Have you heard the news, there's good rockin' tonight

Well meet me my baby in behind the barn
Well I swear, I wanna do you no harm
Tonight I'm gonna put on my rockin' shoes
Tonight I'm gonna rock away all my blues
You heard the news, there's good rockin' tonight

We're gonna rock
We're gonna rock
We're gonna rock
We're gonna rock
We're gonna rock all our cares away
Watch out now!

Have you heard the news, there's good rockin' tonight
Well have you heard the news, there's good rockin' tonight
I'm gonna hold my baby as tight as I can
Tonight I'm gonna be a mighty (Clarence: mighty mighty man)
(Clarence: have you heard the news), there's good rockin' tonight

Let's go!
Have you heard the news, there's good rockin' tonight, hey!
Have you heard the news, there's good rockin' tonight
Have you heard the news, there's good rockin' tonight
Once more!
Have you heard the news, everybody's rockin' tonight
Well have you heard the news, everybody's rockin' tonight
Well have you heard the news, there's good rockin' tonight

Have you heard the news?                
Tab not available
 Buy song Good Rockin' Tonight (Live) on iTunes store

Support artists with purchashing the original song!

share Share
TikTok top songs playlist 2022



0 Comments
Please sign-in to comment.

All Artists: # A B C D E F G H I J K L M N O P Q R S T U V W X Y Z