Do Re Mi

by Nirvana

195

[Intro]
E5  G#5 C#5 F#5
 
[Verse]
E5        G#5
If I may, and if I might,
C#5         F#5
Lie me down weeping.
E5            G#5
And if I say, what is light,
C#5        F#5
I might be dreaming.
E5            G#5
And if I may, what is right,
C#5           F#5       B5    A5 C5 B5
Sell me time, see me he-al.
B5                     A5 C5 B5
The years in his vomit,
B5                         A5 C5
The things from his pocket,
F#5
The chains from his knowing,
F#5       D5
Lifelong dream.
 
G#5   E5
Dream. (x2)
Do Re Mi. (x2)
 
e|-----------------|-----------------|-----------------|-----------------|
B|-----------------|-----------------|-----------------|-----------------|
G|-----------------|-----------------|-----------------|-----------------|
D|-2-1-------------|-2-1-------------|-2-1-----------0-|-2-1-0-0-0-0-0-0-|
A|-----4-2-0-------|-----4-2-0-------|-----4-2-0-0-0-0-|-0-0-4-2-0-0-0-0-|
E|-----------4-2-0-|-----------4-2-0-|-----------4-2-0-|-0-0-0-0-0-4-2-0-|
 
E5        G#5
If I may, and if I might,
C#5        F#5
Wake me up see me.
E5       G#5
If I do, and if I lie,
C#5         F#5
Find me out see me.
E5            G#5
And If I may, cold as ice,
C#5        F#5       B5    A5 C5 B5
I may have deceived me.
 
[Chorus]
B5                     A5 C5 B5
The rays in his socket,
B5                          A5 C5
The praise from this moment.
F#5
The chains from his socket,
F#5      D5
Wrapping me.
G#5   E5
Dream. x 2
Don’t Rape Me.
Do Re Mi. x 2
Don’t Rape Me.
 
e|-----------------|-----------------|-----------------|-----------------|
B|-----------------|-----------------|-----------------|-----------------|
G|-----------------|-----------------|-----------------|-----------------|
D|-2-1-------------|-2-1-------------|-2-1-----------0-|-2-1-0-0-0-0-0-0-|
A|-----4-2-0-------|-----4-2-0-------|-----4-2-0-0-0-0-|-0-0-4-2-0-0-0-0-|(repeat last
E|-----------4-2-0-|-----------4-2-0-|-----------4-2-0-|-0-0-0-0-0-4-2-0-|(bracket + 4)
 
[Verse]
E5              G#5
Please be good, and wish me light,
C#5         F#5
Find me how deceased.
E5            G#5
On their way, just be quiet,
C#5         F#5
Follow hate breed me.
E5            G#5
Yell or wail, and if I sigh,
C#5         F#5
Save me how teaming.
E5            G#5
And if I may, and if I might,
C#5        F#5       B5    A5 C5 B5
Golden gun to bleed me.
 
[Chorus]
B5                     A5 C5 B5
The raise in his pocket,
B5                     A5 C5
The praise from his woman.
F#5
The chains from his owner,
F#5       D5
In my tea.
G#5   E5
Hooray Me. 
They Hate Me. (x2)
Do Re Mi. (x6)
 
e|-----------------|-----------------|-----------------|-----------------|
B|-----------------|-----------------|-----------------|-----------------|
G|-----------------|-----------------|-----------------|-----------------|
D|-2-1-------------|-2-1-------------|-2-1-----------0-|-2-1-0-0-0-0-0-0-|
A|-----4-2-0-------|-----4-2-0-------|-----4-2-0-0-0-0-|-0-0-4-2-0-0-0-0-|
E|-----------4-2-0-|-----------4-2-0-|-----------4-2-0-|-0-0-0-0-0-4-2-0-|
 
E
Visit www.musixindo.com
to see the lyrics Do Re Mi
                  And if I may
And if I might
Lay me down weeping
And if I say, what is life?
I might be dreaming
If I may, what is right?
Summertime, see me yield

Those years in his body
A phrase from his pocket
In chains from the no-end, lifelong dream

Re mi
Re mi
Well, do re mi
Do re mi

If I may
And if I might
Wake me up and see me
If I do, and if I lie
Find me out, to see me

And if I'm made, cold as ice
I may have to see me heal

Raised in his own care
Erased from this moment
The change from his socket
That I may need

Re mi
Re mi
Well, do re mi
Do re mi
Do re mi
Do re mi

Wish me good
And wish me life
Find me out, to see me
In your way
Just be quiet
Follow pain and be me
Yell or wail and if I sigh
Stake me out the TV
And if I may
And if I might
Got a gun
To bleed me

Crazed in this gossip
Erased from his woman
And chains from his knowing
In my tea

Re mi
Re mi
Re mi
Do re mi
Do re mi
Do re mi
Do re mi
Do re mi                
Tab not available
 Buy song Do Re Mi on iTunes store

Support artists with purchashing the original song!


share Share
Tiktok Top Songs



0 Comments
Please sign-in to comment.

All Artists: # A B C D E F G H I J K L M N O P Q R S T U V W X Y Z