Apa Saja

by KRU

214

Intro :

A F#m
----------------0----------------0----------------2---------------4-
------2-0---2----------2-0---2----------2-0---2---------2-0---2-----
----2---------2------2---------2------2---------2-----2---------2---
------------------------------------4-------4-------4-------4-------
--0-------0--------0-------0----------------------------------------
--------------------------------------------------------------------

D A Dm E
-------0---1-0h2-0---------------0------1---0-1-0h1r0----------0h2-----
-----3-----------------2-0---2------------3----------------0-------0---
---2-----------------2---------2------2------------------1---1-------1-
-0-------0--------------------------0----------------------------------
-------------------0-------0---------------------------2---------------
-----------------------------------------------------------------------

(keep playing throughout verse)

A
Apa saja untukmu
F#m
Tak ku hiraukan waktu
D A
Katakan saja kan ku laksana
Dm E
Permaisuri kau bertakhta di jiwa

A
Apa saja untukmu
F#m
Ke dasar lautan biru
D A Dm
Bertaruh nyawa andai kau damba mutiara
E
Di hari lahir mu

Em D
Kita menuju gemilang asmara
Dm A
Tiada cinta setanding kita
C#m F#m
Kurela sehingga ke akhirnya
D E
Tunai segala mimpimu oh ratuku

D
Untuk mu kasih
E C#m F#m
Ku cuba meraih oh bintang di angkasa
Bm E A A7
Walau tak terdaya kan ku ikhtiar
D
Untuk mu kasih
E C#m F#m
Gembira bersedih selagi ku bernyawa
Bm E A
Untuk mu kasih ku korban apa saja

Strum 
E 
(and release)
(2x)

A
Apa saja untukmu
F#m
Kan ku ubah caraku
D A
Jikalau itu yang kau mahu
Dm E
Apa saja demi kebahagiaanmu

Em D
Bukan kupinta yang luarbiasa
Dm A
Cuma secebis janji setia
C#m F#m
Inilah lagu cinta kita
D E
Hanya terbaik untukmu selama-lamanya
Kunjungi www.musixindo.com
untuk melihat lirik Apa Saja
                  Apa saja untukmu
Tak ku hiraukan waktu
Katakan saja kan ku laksana
Permaisuri kau bertakhta di jiwa
Apa saja untukmu
Ke dasar lautan biru
Bertaruh nyawa andai kau damba
Mutiara...di hari lahirmu

Kita menuju gemilang asmara
Tiada cinta setanding kita
Ku rela sehingga ke akhirnya
Tunai segala mimpimu
Uhh...ratuku

[Chorus]
Untukmu kasih
Ku cuba meraih
Bintang di angkasa
Walau tak terdayakan ku ikhtiar

oohhh...

Untukmu kasih
Gembira bersedih
Selagi ku bernyawa
Untukmu kasih,
ku korban apa saja
Apa saja untukmu
kan ku ubah caraku
Jikalau itu yang kau mahu
Apa saja demi kebahgiaanmu

Bukanku pinta yang luarbiasa
c**a secebis janji setia
Inilah...lagu cinta kita
Hanya terbaik untukmu
Selama-lamanya                
Tab tidak tersedia
 Beli lagu Apa Saja di iTunes store

Support artist dengan membeli lagu asli


share Bagikan



0 Komentar
Masuk untuk berkomentar.

Semua Artist: 0-9 A B C D E F G H I J K L M N O P Q R S T U V W X Y Z