Lathi (ver 3)

by Weird Genius feat Sara Fajira

Chord Gitar Lathi (ver 3) by Weird Genius - Musikord.com

34

[Intro/Tabs]
 
  Am               F/A
e|--0-0-0-0-0-0-0-0-1-1-1-1-1-1-1-0--|
B|---1---1---1---1---1---1---1-----1-|
G|-2---2---2---2---2---2---2---2-----|
D|-----------------------------------|
A|-----------------------------------|
E|-----------------------------------|
 
[Verse 1]
 
  Am
e|--0-0-0-0-0-0-0-0-|
B|---1---1---1---1--|
G|-2---2---2---2----|
D|------------------|
A|------------------|
E|------------------|
I was born a fool
 
 F/A                C               G
e|--1-1-1-1-1-1-1-1--0-0-0-0-0-0-0-0-----------------|
B|---1---1---1---1----1---1---1---1--3-3-3-3-3-3-3-3-|
G|-2---2---2---2----0---0---0---0-----4---4---4---4--|
D|----------------------------------5---5---5---5----|
A|---------------------------------------------------|
E|---------------------------------------------------|
Broken  all  the    rules, ooh    oh
 
 
*This struming chord
 
Am
Seeing all null
F                  C          G
Denying all of the truth, ooh oh
 
 
[Pre-Chorus]
 
Dm                G
Everything has changed
C               Am
It all happened for a reason
Dm                  E7
Down from the first stage
Am                    G/B    C
It isn't something we fought for
Dm                  G
Never wanted this kind of pain
C                  Am
Turned myself so cold and heartless
    Dm                     E
But one thing you should know
 
 
[Chorus]
 
 Am             Bb            Am               Bb  Am
(Kowe ra iso mlayu saka kesalahan Ajining diri ana ing lathi)
 
[Middle Intro]
 
Am   Bb | Am   Bb | Am   Bb | Am   Bb | Am   Bb | Am   Bb | Am   Bb | Am   Bb |
 
  Am
e|--0-0-0-0-0-0-0-0-|
B|---1---1---1---1--|
G|-2---2---2---2----|
D|------------------|
A|------------------|
E|------------------|
 
 
[Verse 2]
 
  Am                F/A
e|--0-0-0-0-0-0-0-0-1-1-1-1-1-1-1-1-|
B|---1---1---1---1---1---1---1---1--|
G|-2---2---2---2---2---2---2---2----|
D|----------------------------------|
A|----------------------------------|
E|----------------------------------|
Pushing through the countless pain
 
    C               G
e|---0-0-0-0-0-0-0-0-----------------------------------------|
B|----1---1---1---1--------------------------3-3-3-3-3-3-3-3-|
G|--0---0---0---0-----------------------------4---4---4---4--|
D|------------------------------------------5---5---5---5----|
A|-----------------------------------------------------------|
E|-----------------------------------------------------------|
And all I know that this love's a bless and curse
 
 
[Pre-Chorus 2]
 
Dm               G
Everything has changed
C              Am
It all happened for a reason
Dm                  E7
Down from the first stage
Am                    G      C
It isn't something we fought for
Dm                    G
Never wanted this kind of pain
C                    Am
Turned myself so cold and heartless
    Dm                    E
But one thing you should know
 
 
[Chorus]
 
Am               Bb            Am              Bb  Am
(Kowe ra iso mlayu saka kesalahan Ajining diri ana ing lathi)
 
 
[Outro]

Am   Bb | Am   Bb | Am   Bb | Am   Bb | Am   Bb | Am   Bb | Am   Bb | Am   Bb |
Kunjungi www.musixindo.com
untuk melihat lirik Lathi (ver 3)
                  "Lathi (ꦭꦛꦶ)"
(feat. Sara Fajira)

I was born a fool
Broken all the rules, ooh
Seeing all null
Denying all of the truth, ooh

Everything has changed
It all happened for a reason
Down from the first stage
It isn't something we fought for
Never wanted this kind of pain
Turned myself so cold and heartless
But one thing you should know

(Kowe ra iso mlayu saka kesalahan
Ajining diri ana ing lathi)

Pushing through the countless pain
And all I know that this love's a bless and curse

Everything has changed
It all happened for a reason
Down from the first stage
It isn't something we fought for
Never wanted this kind of pain
Turned myself so cold and heartless
But one thing you should know

(Kowe ra iso mlayu saka kesalahan
Ajining diri ana ing lathi)                
Tab tidak tersedia
 Beli lagu Lathi (ver 3) di iTunes store

Support artist dengan membeli lagu asli


share Bagikan



0 Komentar
Masuk untuk berkomentar.



Semua Artist: 0-9 A B C D E F G H I J K L M N O P Q R S T U V W X Y Z